  0
SECTION
  2
HEADER
  9
$EXTMIN
 10
42.999999999998
 20
21.999999999995
  9
$EXTMAX
 10
969.5
 20
642.00000000001
  9
$LIMMIN
 10
0
 20
0
  9
$LIMMAX
 10
1020
 20
660
  9
$LUNITS
 70
2
  9
$LUPREC
 70
2
  9
$AUNITS
 70
0
  9
$AUPREC
 70
2
  0
ENDSEC
  0
SECTION
  2
TABLES
  0
TABLE
  2
LTYPE
 70
9
  0
LTYPE
  2
CONTINUOUS
  3
___________________________
 70
64
 72
65
 73
0
 40
0
  0
LTYPE
  2
HIDDEN
  3
_ _ _ _ _ _ _ _ _ _ _ _ _ _ 
 70
64
 72
65
 73
2
 49
0.25
 49
-0.125
 40
0.375
  0
LTYPE
  2
DASHED
  3
__ __ __ __ __ __ __ __ __ 
 70
64
 72
65
 73
2
 49
0.5
 49
-0.25
 40
0.75
  0
LTYPE
  2
CENTER
  3
____ _ ____ _ ____ _ ____ _ 
 70
64
 72
65
 73
4
 49
1.25
 49
-0.25
 49
0.25
 49
-0.25
 40
2
  0
LTYPE
  2
PHANTOM
  3
_____ _ _ _____ _ _ _____ _ _ 
 70
64
 72
65
 73
6
 49
1.25
 49
-0.25
 49
0.25
 49
-0.25
 49
0.25
 49
-0.25
 40
2.5
  0
LTYPE
  2
DOT
  3
...........................
 70
64
 72
65
 73
2
 49
0
 49
-0.25
 40
0.25
  0
LTYPE
  2
DASHDOT
  3
__ . __ . __ . __ . __ . __ . 
 70
64
 72
65
 73
4
 49
0.5
 49
-0.25
 49
0
 49
-0.25
 40
1
  0
LTYPE
  2
DIVIDE
  3
__ . . __ . . __ . . __ . . 
 70
64
 72
65
 73
6
 49
0.5
 49
-0.25
 49
0
 49
-0.25
 49
0
 49
-0.25
 40
1.25
  0
LTYPE
  2
BORDER
  3
__ __ . __ __ . __ __ . __ __ . 
 70
64
 72
65
 73
6
 49
0.5
 49
-0.25
 49
0.5
 49
-0.25
 49
0
 49
-0.25
 40
1.75
  0
ENDTAB
  0
TABLE
  2
LAYER
 70
1
  0
LAYER
  2
1
 62
8
  6
CONTINUOUS
 70
0
  0
ENDTAB
  0
TABLE
  2
STYLE
 70
5
  0
STYLE
  2
ptmarker
 70
1
 40
0
 50
0
 71
0
 41
0
 42
0
  3
ptmarks
  0
STYLE
  2
STANDARD
 70
0
 40
0
 50
0
 71
0
 41
0
 42
0
  3
TXT
  0
STYLE
  2
ITALIC
 70
0
 40
0
 50
0
 71
0
 41
0
 42
0
  3
ITALIC
  0
STYLE
  2
SIMPLEX
 70
0
 40
0
 50
0
 71
0
 41
0
 42
0
  3
SIMPLEX
  0
STYLE
  2
COMPLEX
 70
0
 40
0
 50
0
 71
0
 41
0
 42
0
  3
COMPLEX
  0
ENDTAB
  0
ENDSEC
  0
SECTION
  2
BLOCKS
  0
ENDSEC
  0
SECTION
  2
ENTITIES
  0
LINE
  8
1
  6
CONTINUOUS
 62
8
 10
963.5
 20
30.000000000001
 11
963.5
 21
226
  0
LINE
  8
1
  6
CONTINUOUS
 62
8
 10
120.5
 20
30.000000000001
 11
321.5
 21
30.000000000001
  0
LINE
  8
1
  6
CONTINUOUS
 62
8
 10
756.5
 20
232
 11
963.5
 21
232
  0
LINE
  8
1
  6
CONTINUOUS
 62
8
 10
756.5
 20
41
 11
756.5
 21
172
  0
LINE
  8
1
  6
CONTINUOUS
 62
8
 10
963.5
 20
232
 11
963.5
 21
292
  0
LINE
  8
1
  6
CONTINUOUS
 62
8
 10
774.49999999999
 20
634
 11
963.5
 21
634
  0
LINE
  8
1
  6
CONTINUOUS
 62
8
 10
552.5
 20
430
 11
552.5
 21
439
  0
LINE
  8
1
  6
CONTINUOUS
 62
8
 10
543.5
 20
430
 11
552.5
 21
430
  0
LINE
  8
1
  6
CONTINUOUS
 62
8
 10
543.5
 20
430
 11
543.5
 21
439
  0
LINE
  8
1
  6
CONTINUOUS
 62
8
 10
543.5
 20
439
 11
552.5
 21
439
  0
LINE
  8
1
  6
CONTINUOUS
 62
4
 10
764
 20
634
 11
764
 21
439
  0
LINE
  8
1
  6
CONTINUOUS
 62
4
 10
548
 20
634
 11
548
 21
439
  0
LINE
  8
1
  6
CONTINUOUS
 62
4
 10
332
 20
634
 11
332
 21
439
  0
LINE
  8
1
  6
CONTINUOUS
 62
8
 10
768.5
 20
430
 11
768.5
 21
439
  0
LINE
  8
1
  6
CONTINUOUS
 62
8
 10
759.5
 20
430
 11
768.5
 21
430
  0
LINE
  8
1
  6
CONTINUOUS
 62
8
 10
759.5
 20
430
 11
759.5
 21
439
  0
LINE
  8
1
  6
CONTINUOUS
 62
8
 10
759.5
 20
439
 11
768.5
 21
439
  0
LINE
  8
1
  6
CONTINUOUS
 62
8
 10
336.5
 20
430
 11
336.5
 21
439
  0
LINE
  8
1
  6
CONTINUOUS
 62
8
 10
327.5
 20
430
 11
336.5
 21
430
  0
LINE
  8
1
  6
CONTINUOUS
 62
8
 10
327.5
 20
430
 11
327.5
 21
439
  0
LINE
  8
1
  6
CONTINUOUS
 62
8
 10
327.5
 20
439
 11
336.5
 21
439
  0
LINE
  8
1
  6
CONTINUOUS
 62
8
 10
753.5
 20
634
 11
753.5
 21
630
  0
LINE
  8
1
  6
CONTINUOUS
 62
8
 10
774.5
 20
634
 11
774.5
 21
630
  0
LINE
  8
1
  6
CONTINUOUS
 62
8
 10
558.5
 20
634
 11
558.5
 21
630
  0
LINE
  8
1
  6
CONTINUOUS
 62
8
 10
537.5
 20
634
 11
537.5
 21
630
  0
LINE
  8
1
  6
CONTINUOUS
 62
8
 10
537.5
 20
630
 11
558.5
 21
630
  0
LINE
  8
1
  6
CONTINUOUS
 62
8
 10
753.5
 20
630
 11
774.5
 21
630
  0
LINE
  8
1
  6
CONTINUOUS
 62
8
 10
558.5
 20
634
 11
753.5
 21
634
  0
LINE
  8
1
  6
CONTINUOUS
 62
8
 10
569.49999999999
 20
642
 11
569.49999999999
 21
634
  0
LINE
  8
1
  6
CONTINUOUS
 62
8
 10
742.5
 20
642
 11
742.5
 21
634
  0
LINE
  8
1
  6
CONTINUOUS
 62
8
 10
120.5
 20
642
 11
969.5
 21
642
  0
LINE
  8
1
  6
CONTINUOUS
 62
8
 10
635.49999999999
 20
642
 11
635.49999999999
 21
634
  0
LINE
  8
1
  6
CONTINUOUS
 62
8
 10
676.5
 20
642.00000000001
 11
676.5
 21
634.00000000001
  0
LINE
  8
1
  6
CONTINUOUS
 62
8
 10
569.49999999999
 20
638
 11
635.49999999999
 21
638
  0
LINE
  8
1
  6
CONTINUOUS
 62
8
 10
676.5
 20
638.00000000001
 11
742.5
 21
638
  0
LINE
  8
1
  6
CONTINUOUS
 62
8
 10
785.49999999999
 20
642
 11
785.49999999999
 21
634
  0
LINE
  8
1
  6
CONTINUOUS
 62
8
 10
958.5
 20
642
 11
958.5
 21
634
  0
LINE
  8
1
  6
CONTINUOUS
 62
8
 10
851.49999999999
 20
642
 11
851.49999999999
 21
634
  0
LINE
  8
1
  6
CONTINUOUS
 62
8
 10
892.5
 20
642.00000000001
 11
892.5
 21
634.00000000001
  0
LINE
  8
1
  6
CONTINUOUS
 62
8
 10
785.49999999999
 20
638
 11
851.49999999999
 21
638
  0
LINE
  8
1
  6
CONTINUOUS
 62
8
 10
892.5
 20
638.00000000001
 11
958.5
 21
638
  0
LINE
  8
1
  6
CONTINUOUS
 62
8
 10
969.5
 20
22.000000000001
 11
969.5
 21
292
  0
LINE
  8
1
  6
CONTINUOUS
 62
8
 10
969.5
 20
364
 11
969.5
 21
642
  0
LINE
  8
1
  6
CONTINUOUS
 62
8
 10
963.5
 20
292
 11
969.5
 21
292
  0
LINE
  8
1
  6
CONTINUOUS
 62
8
 10
963.5
 20
364
 11
963.5
 21
634
  0
LINE
  8
1
  6
CONTINUOUS
 62
8
 10
963.5
 20
364
 11
969.5
 21
364
  0
LINE
  8
1
  6
CONTINUOUS
 62
8
 10
966.5
 20
364
 11
966.5
 21
328
  0
LINE
  8
1
  6
CONTINUOUS
 62
8
 10
966.5
 20
328
 11
966.5
 21
292
  0
LINE
  8
1
  6
CONTINUOUS
 62
8
 10
552.5
 20
634
 11
552.5
 21
439
  0
LINE
  8
1
  6
CONTINUOUS
 62
4
 10
764
 20
430
 11
764
 21
223
  0
LINE
  8
1
  6
CONTINUOUS
 62
8
 10
552.5
 20
214
 11
552.5
 21
223
  0
LINE
  8
1
  6
CONTINUOUS
 62
8
 10
543.5
 20
214
 11
552.5
 21
214
  0
LINE
  8
1
  6
CONTINUOUS
 62
8
 10
543.5
 20
214
 11
543.5
 21
223
  0
LINE
  8
1
  6
CONTINUOUS
 62
8
 10
543.5
 20
223
 11
552.5
 21
223
  0
LINE
  8
1
  6
CONTINUOUS
 62
8
 10
768.5
 20
214
 11
768.5
 21
226
  0
LINE
  8
1
  6
CONTINUOUS
 62
8
 10
759.5
 20
214
 11
768.5
 21
214
  0
LINE
  8
1
  6
CONTINUOUS
 62
8
 10
759.5
 20
214
 11
759.5
 21
223
  0
LINE
  8
1
  6
CONTINUOUS
 62
8
 10
759.5
 20
223
 11
768.5
 21
223
  0
LINE
  8
1
  6
CONTINUOUS
 62
8
 10
336.5
 20
214
 11
336.5
 21
223
  0
LINE
  8
1
  6
CONTINUOUS
 62
8
 10
327.5
 20
214
 11
336.5
 21
214
  0
LINE
  8
1
  6
CONTINUOUS
 62
8
 10
327.5
 20
214
 11
327.5
 21
223
  0
LINE
  8
1
  6
CONTINUOUS
 62
8
 10
327.5
 20
223
 11
336.5
 21
223
  0
LINE
  8
1
  6
CONTINUOUS
 62
4
 10
118.5
 20
218.5
 11
327.5
 21
218.5
  0
LINE
  8
1
  6
CONTINUOUS
 62
4
 10
336.5
 20
218.5
 11
543.5
 21
218.5
  0
LINE
  8
1
  6
CONTINUOUS
 62
4
 10
552.5
 20
218.5
 11
759.5
 21
218.5
  0
LINE
  8
1
  6
CONTINUOUS
 62
8
 10
324.5
 20
60.000000000001
 11
324.5
 21
221.5
  0
LINE
  8
1
  6
CONTINUOUS
 62
8
 10
336.5
 20
221.5
 11
358.5
 21
221.5
  0
LINE
  8
1
  6
CONTINUOUS
 62
8
 10
324.5
 20
221.5
 11
327.5
 21
221.5
  0
LINE
  8
1
  6
CONTINUOUS
 62
8
 10
170.5
 20
60.000000000001
 11
206.5
 21
60.000000000001
  0
LINE
  8
1
  6
CONTINUOUS
 62
8
 10
290.5
 20
60.000000000001
 11
324.5
 21
60.000000000001
  0
LINE
  8
1
  6
CONTINUOUS
 62
8
 10
254.5
 20
30.000000000001
 11
254.5
 21
60.000000000001
  0
LINE
  8
1
  6
CONTINUOUS
 62
8
 10
242.5
 20
30.000000000001
 11
242.5
 21
60.000000000001
  0
LINE
  8
1
  6
CONTINUOUS
 62
8
 10
242.5
 20
60.000000000001
 11
254.5
 21
60.000000000001
  0
LINE
  8
1
  6
CONTINUOUS
 62
8
 10
208.5
 20
33.000000000001
 11
240.5
 21
33.000000000001
  0
LINE
  8
1
  6
CONTINUOUS
 62
8
 10
208.5
 20
61.000000000001
 11
240.5
 21
61.000000000001
  0
LINE
  8
1
  6
CONTINUOUS
 62
8
 10
208.5
 20
33.000000000001
 11
208.5
 21
61.000000000001
  0
LINE
  8
1
  6
CONTINUOUS
 62
8
 10
240.5
 20
33.000000000001
 11
240.5
 21
61.000000000001
  0
LINE
  8
1
  6
CONTINUOUS
 62
8
 10
151.5
 20
79.000000000001
 11
170.5
 21
60.000000000001
  0
LINE
  8
1
  6
CONTINUOUS
 62
8
 10
121.5
 20
112
 11
164.5
 21
112
  0
LINE
  8
1
  6
CONTINUOUS
 62
8
 10
151.5
 20
79.000000000001
 11
151.5
 21
118
  0
LINE
  8
1
  6
CONTINUOUS
 62
8
 10
146.00431098567
 20
77.42462120246
 11
167.92462120246
 21
55.504310985677
  0
LINE
  8
1
  6
CONTINUOUS
 62
8
 10
130.44796179957
 20
61.868272016356
 11
152.36827201635
 21
39.947961799573
  0
LINE
  8
1
  6
CONTINUOUS
 62
8
 10
144.5900974233
 20
77.42462120246
 11
130.44796179957
 21
63.282485578729
  0
LINE
  8
1
  6
CONTINUOUS
 62
8
 10
167.92462120246
 20
54.090097423304
 11
153.78248557873
 21
39.947961799573
  0
ARC
  8
1
  6
CONTINUOUS
 62
8
 10
131.15506858076
 20
62.575378797542
 40
1
 50
135
 51
225
  0
ARC
  8
1
  6
CONTINUOUS
 62
8
 10
145.29720420449
 20
76.717514421274
 40
1
 50
45.000000000001
 51
135
  0
ARC
  8
1
  6
CONTINUOUS
 62
8
 10
167.21751442127
 20
54.797204204491
 40
1
 50
315
 51
45.000000000001
  0
ARC
  8
1
  6
CONTINUOUS
 62
8
 10
153.07537879754
 20
40.65506858076
 40
1
 50
225
 51
315
  0
LINE
  8
1
  6
CONTINUOUS
 62
8
 10
155.3734758364
 20
63.812815664619
 11
145.47398089978
 21
53.913320728007
  0
LINE
  8
1
  6
CONTINUOUS
 62
8
 10
144.413320728
 20
74.772970773011
 11
134.51382579139
 21
64.873475836399
  0
LINE
  8
1
  6
CONTINUOUS
 62
8
 10
165.27297077301
 20
53.913320728008
 11
155.3734758364
 21
44.013825791396
  0
LINE
  8
1
  6
CONTINUOUS
 62
8
 10
145.82753429038
 20
74.772970773011
 11
154.31281566462
 21
66.287689398772
  0
LINE
  8
1
  6
CONTINUOUS
 62
8
 10
134.51382579139
 20
63.459262274026
 11
142.99910716563
 21
54.973980899787
  0
LINE
  8
1
  6
CONTINUOUS
 62
8
 10
145.47398089978
 20
52.499107165634
 11
153.95926227402
 21
44.013825791396
  0
LINE
  8
1
  6
CONTINUOUS
 62
8
 10
154.31281566462
 20
64.873475836399
 11
144.413320728
 21
54.973980899787
  0
LINE
  8
1
  6
CONTINUOUS
 62
8
 10
156.78768939877
 20
63.812815664619
 11
165.27297077301
 21
55.327534290381
  0
ARC
  8
1
  6
CONTINUOUS
 62
8
 10
135.22093257258
 20
64.166369055212
 40
1
 50
135
 51
225
  0
ARC
  8
1
  6
CONTINUOUS
 62
8
 10
145.12042750919
 20
74.065863991824
 40
1
 50
45.000000000001
 51
135
  0
ARC
  8
1
  6
CONTINUOUS
 62
8
 10
153.60570888343
 20
65.580582617586
 40
1
 50
315
 51
45.000000000001
  0
ARC
  8
1
  6
CONTINUOUS
 62
8
 10
143.70621394682
 20
55.681087680974
 40
1
 50
225
 51
315
  0
ARC
  8
1
  6
CONTINUOUS
 62
8
 10
146.18108768097
 20
53.206213946821
 40
1
 50
135
 51
225
  0
ARC
  8
1
  6
CONTINUOUS
 62
8
 10
156.08058261758
 20
63.105708883433
 40
1
 50
45.000000000001
 51
135
  0
ARC
  8
1
  6
CONTINUOUS
 62
8
 10
164.56586399182
 20
54.620427509194
 40
1
 50
315
 51
45.000000000001
  0
ARC
  8
1
  6
CONTINUOUS
 62
8
 10
154.66636905521
 20
44.720932572582
 40
1
 50
225
 51
315
  0
LINE
  8
1
  6
CONTINUOUS
 62
8
 10
121.5
 20
149
 11
164.5
 21
149
  0
LINE
  8
1
  6
CONTINUOUS
 62
8
 10
121.5
 20
112
 11
121.5
 21
113.5
  0
LINE
  8
1
  6
CONTINUOUS
 62
8
 10
164.5
 20
112
 11
164.5
 21
113.5
  0
LINE
  8
1
  6
CONTINUOUS
 62
8
 10
164.5
 20
147.5
 11
164.5
 21
149
  0
LINE
  8
1
  6
CONTINUOUS
 62
8
 10
121.5
 20
147.5
 11
164.5
 21
147.5
  0
LINE
  8
1
  6
CONTINUOUS
 62
8
 10
121.5
 20
147.5
 11
121.5
 21
149
  0
LINE
  8
1
  6
CONTINUOUS
 62
8
 10
121.5
 20
112
 11
121.5
 21
147.5
  0
LINE
  8
1
  6
CONTINUOUS
 62
8
 10
121.5
 20
113.5
 11
164.5
 21
113.5
  0
LINE
  8
1
  6
CONTINUOUS
 62
8
 10
131.5
 20
113.5
 11
131.5
 21
147.5
  0
LINE
  8
1
  6
CONTINUOUS
 62
8
 10
141.5
 20
113.5
 11
141.5
 21
147.5
  0
LINE
  8
1
  6
CONTINUOUS
 62
8
 10
151.5
 20
113.5
 11
151.5
 21
147.5
  0
LINE
  8
1
  6
CONTINUOUS
 62
8
 10
161.5
 20
113.5
 11
161.5
 21
147.5
  0
LINE
  8
1
  6
CONTINUOUS
 62
8
 10
124.5
 20
91.000000000001
 11
124.5
 21
112
  0
LINE
  8
1
  6
CONTINUOUS
 62
8
 10
120.5
 20
91.000000000001
 11
124.5
 21
91.000000000001
  0
LINE
  8
1
  6
CONTINUOUS
 62
8
 10
120.5
 20
170
 11
124.5
 21
170
  0
LINE
  8
1
  6
CONTINUOUS
 62
8
 10
124.5
 20
149
 11
124.5
 21
170
  0
LINE
  8
1
  6
CONTINUOUS
 62
4
 10
548
 20
430
 11
548
 21
223
  0
LINE
  8
1
  6
CONTINUOUS
 62
4
 10
332
 20
430
 11
332
 21
223
  0
LINE
  8
1
  6
CONTINUOUS
 62
4
 10
548
 20
214
 11
548
 21
41
  0
LINE
  8
1
  6
CONTINUOUS
 62
4
 10
332
 20
214
 11
332
 21
41
  0
LINE
  8
1
  6
CONTINUOUS
 62
8
 10
537.5
 20
34.000000000001
 11
537.5
 21
30.000000000001
  0
LINE
  8
1
  6
CONTINUOUS
 62
8
 10
558.5
 20
34.000000000001
 11
558.5
 21
30.000000000001
  0
LINE
  8
1
  6
CONTINUOUS
 62
8
 10
537.5
 20
34.000000000001
 11
558.5
 21
34.000000000001
  0
LINE
  8
1
  6
CONTINUOUS
 62
8
 10
558.5
 20
30.000000000001
 11
753.5
 21
30.000000000001
  0
LINE
  8
1
  6
CONTINUOUS
 62
8
 10
753.5
 20
34.000000000001
 11
753.5
 21
30.000000000001
  0
LINE
  8
1
  6
CONTINUOUS
 62
8
 10
774.5
 20
34.000000000001
 11
774.5
 21
30.000000000001
  0
LINE
  8
1
  6
CONTINUOUS
 62
8
 10
753.5
 20
34.000000000001
 11
774.5
 21
34.000000000001
  0
LINE
  8
1
  6
CONTINUOUS
 62
8
 10
321.5
 20
34.000000000002
 11
321.5
 21
30.000000000001
  0
LINE
  8
1
  6
CONTINUOUS
 62
8
 10
342.5
 20
34.000000000002
 11
342.5
 21
30.000000000001
  0
LINE
  8
1
  6
CONTINUOUS
 62
8
 10
321.5
 20
34.000000000002
 11
342.5
 21
34.000000000002
  0
LINE
  8
1
  6
CONTINUOUS
 62
8
 10
774.5
 20
30.000000000001
 11
963.5
 21
30.000000000001
  0
LINE
  8
1
  6
CONTINUOUS
 62
8
 10
342.5
 20
30.000000000001
 11
537.5
 21
30.000000000001
  0
LINE
  8
1
  6
CONTINUOUS
 62
4
 10
764
 20
214
 11
764
 21
41
  0
LINE
  8
1
  6
CONTINUOUS
 62
8
 10
120.5
 20
22.000000000001
 11
969.5
 21
22.000000000001
  0
LINE
  8
1
  6
CONTINUOUS
 62
8
 10
570.5
 20
30.000000000001
 11
570.5
 21
22.000000000001
  0
LINE
  8
1
  6
CONTINUOUS
 62
8
 10
741.5
 20
30.000000000001
 11
741.5
 21
22.000000000001
  0
LINE
  8
1
  6
CONTINUOUS
 62
8
 10
630.5
 20
30.000000000001
 11
630.5
 21
22.000000000001
  0
LINE
  8
1
  6
CONTINUOUS
 62
8
 10
681.5
 20
29.999999999995
 11
681.5
 21
21.999999999995
  0
LINE
  8
1
  6
CONTINUOUS
 62
8
 10
570.5
 20
26.000000000001
 11
630.5
 21
26.000000000001
  0
LINE
  8
1
  6
CONTINUOUS
 62
8
 10
681.5
 20
25.999999999995
 11
741.5
 21
26.000000000001
  0
LINE
  8
1
  6
CONTINUOUS
 62
8
 10
786.5
 20
30.000000000001
 11
786.5
 21
22.000000000001
  0
LINE
  8
1
  6
CONTINUOUS
 62
8
 10
957.5
 20
30.000000000001
 11
957.5
 21
22.000000000001
  0
LINE
  8
1
  6
CONTINUOUS
 62
8
 10
846.5
 20
30.000000000001
 11
846.5
 21
22.000000000001
  0
LINE
  8
1
  6
CONTINUOUS
 62
8
 10
897.5
 20
29.999999999995
 11
897.5
 21
21.999999999995
  0
LINE
  8
1
  6
CONTINUOUS
 62
8
 10
786.5
 20
26.000000000001
 11
846.5
 21
26.000000000001
  0
LINE
  8
1
  6
CONTINUOUS
 62
8
 10
897.5
 20
25.999999999995
 11
957.5
 21
26.000000000001
  0
LINE
  8
1
  6
CONTINUOUS
 62
8
 10
354.5
 20
30.000000000002
 11
354.5
 21
22.000000000002
  0
LINE
  8
1
  6
CONTINUOUS
 62
8
 10
525.5
 20
30.000000000002
 11
525.5
 21
22.000000000002
  0
LINE
  8
1
  6
CONTINUOUS
 62
8
 10
414.5
 20
30.000000000002
 11
414.5
 21
22.000000000002
  0
LINE
  8
1
  6
CONTINUOUS
 62
8
 10
465.5
 20
29.999999999996
 11
465.5
 21
21.999999999996
  0
LINE
  8
1
  6
CONTINUOUS
 62
8
 10
354.5
 20
26.000000000002
 11
414.5
 21
26.000000000002
  0
LINE
  8
1
  6
CONTINUOUS
 62
8
 10
465.5
 20
25.999999999996
 11
525.5
 21
26.000000000002
  0
LINE
  8
1
  6
CONTINUOUS
 62
8
 10
138.5
 20
30.000000000002
 11
138.5
 21
22.000000000002
  0
LINE
  8
1
  6
CONTINUOUS
 62
8
 10
309.5
 20
30.000000000002
 11
309.5
 21
22.000000000002
  0
LINE
  8
1
  6
CONTINUOUS
 62
8
 10
198.5
 20
30.000000000002
 11
198.5
 21
22.000000000002
  0
LINE
  8
1
  6
CONTINUOUS
 62
8
 10
249.5
 20
29.999999999996
 11
249.5
 21
21.999999999996
  0
LINE
  8
1
  6
CONTINUOUS
 62
8
 10
138.5
 20
26.000000000002
 11
198.5
 21
26.000000000002
  0
LINE
  8
1
  6
CONTINUOUS
 62
8
 10
249.5
 20
25.999999999996
 11
309.5
 21
26.000000000002
  0
LINE
  8
1
  6
CONTINUOUS
 62
8
 10
118.5
 20
214
 11
120.5
 21
214
  0
LINE
  8
1
  6
CONTINUOUS
 62
8
 10
120.5
 20
170
 11
120.5
 21
214
  0
LINE
  8
1
  6
CONTINUOUS
 62
8
 10
118.5
 20
214
 11
118.5
 21
235
  0
LINE
  8
1
  6
CONTINUOUS
 62
8
 10
104.5
 20
235
 11
118.5
 21
235
  0
LINE
  8
1
  6
CONTINUOUS
 62
8
 10
104.5
 20
271
 11
118.5
 21
271
  0
LINE
  8
1
  6
CONTINUOUS
 62
8
 10
118.5
 20
292
 11
120.5
 21
292
  0
LINE
  8
1
  6
CONTINUOUS
 62
8
 10
118.5
 20
271
 11
118.5
 21
292
  0
LINE
  8
1
  6
CONTINUOUS
 62
8
 10
120.5
 20
292
 11
120.5
 21
436
  0
LINE
  8
1
  6
CONTINUOUS
 62
8
 10
488.5
 20
436
 11
488.5
 21
442
  0
LINE
  8
1
  6
CONTINUOUS
 62
8
 10
419.5
 20
436
 11
419.5
 21
442
  0
LINE
  8
1
  6
CONTINUOUS
 62
8
 10
120.5
 20
30.000000000001
 11
120.5
 21
91.000000000001
  0
LINE
  8
1
  6
CONTINUOUS
 62
4
 10
120.5
 20
364
 11
963.5
 21
364
  0
LINE
  8
1
  6
CONTINUOUS
 62
4
 10
120.5
 20
292
 11
963.5
 21
292
  0
LINE
  8
1
  6
CONTINUOUS
 62
8
 10
530
 20
177
 11
599
 21
246
  0
LINE
  8
1
  6
CONTINUOUS
 62
8
 10
530
 20
177
 11
530
 21
30.000000000001
  0
LINE
  8
1
  6
CONTINUOUS
 62
4
 10
552.5
 20
434.5
 11
759.5
 21
434.5
  0
LINE
  8
1
  6
CONTINUOUS
 62
8
 10
120.5
 20
436
 11
207.5
 21
436
  0
LINE
  8
1
  6
CONTINUOUS
 62
8
 10
120.5
 20
442
 11
207.5
 21
442
  0
LINE
  8
1
  6
CONTINUOUS
 62
8
 10
273.5
 20
436
 11
327.5
 21
436
  0
LINE
  8
1
  6
CONTINUOUS
 62
8
 10
273.5
 20
442
 11
327.5
 21
442
  0
LINE
  8
1
  6
CONTINUOUS
 62
8
 10
336.5
 20
436
 11
419.5
 21
436
  0
LINE
  8
1
  6
CONTINUOUS
 62
8
 10
488.5
 20
436
 11
543.5
 21
436
  0
LINE
  8
1
  6
CONTINUOUS
 62
8
 10
336.5
 20
442
 11
419.5
 21
442
  0
LINE
  8
1
  6
CONTINUOUS
 62
8
 10
488.5
 20
442
 11
543.5
 21
442
  0
LINE
  8
1
  6
CONTINUOUS
 62
8
 10
273.5
 20
436
 11
273.5
 21
442
  0
LINE
  8
1
  6
CONTINUOUS
 62
8
 10
207.5
 20
436
 11
207.5
 21
442
  0
LINE
  8
1
  6
CONTINUOUS
 62
8
 10
120.5
 20
642
 11
120.5
 21
442
  0
LINE
  8
1
  6
CONTINUOUS
 62
8
 10
120.5
 20
66.000000000001
 11
156.5
 21
30.000000000001
  0
LINE
  8
1
  6
CONTINUOUS
 62
8
 10
206.5
 20
30.000000000001
 11
206.5
 21
60.000000000001
  0
LINE
  8
1
  6
CONTINUOUS
 62
8
 10
290.5
 20
30.000000000001
 11
290.5
 21
60.000000000001
  0
LINE
  8
1
  6
CONTINUOUS
 62
8
 10
358.5
 20
30.000000000001
 11
358.5
 21
221.5
  0
LINE
  8
1
  6
CONTINUOUS
 62
8
 10
578
 20
174.08831175457
 11
578
 21
30.000000000001
  0
LINE
  8
1
  6
CONTINUOUS
 62
8
 10
578
 20
174.08831175457
 11
601.91168824543
 21
198
  0
LINE
  8
1
  6
CONTINUOUS
 62
8
 10
601.91168824543
 20
198
 11
684.5
 21
198
  0
LINE
  8
1
  6
CONTINUOUS
 62
8
 10
601.91168824543
 20
246
 11
684.5
 21
246
  0
LINE
  8
1
  6
CONTINUOUS
 62
8
 10
684.5
 20
198
 11
684.5
 21
246
  0
LINE
  8
1
  6
CONTINUOUS
 62
8
 10
762.5
 20
41
 11
762.5
 21
172
  0
LINE
  8
1
  6
CONTINUOUS
 62
8
 10
768.5
 20
226
 11
963.5
 21
226
  0
LINE
  8
1
  6
CONTINUOUS
 62
8
 10
756.5
 20
208
 11
762.5
 21
208
  0
LINE
  8
1
  6
CONTINUOUS
 62
8
 10
756.5
 20
208
 11
756.5
 21
232
  0
LINE
  8
1
  6
CONTINUOUS
 62
8
 10
756.5
 20
172
 11
762.5
 21
172
  0
LINE
  8
1
  6
CONTINUOUS
 62
8
 10
762.5
 20
208
 11
762.5
 21
214
  0
LINE
  8
1
  6
CONTINUOUS
 62
8
 10
759.5
 20
208
 11
759.5
 21
172
  0
LINE
  8
1
  6
CONTINUOUS
 62
8
 10
543.5
 20
501
 11
552.5
 21
501
  0
LINE
  8
1
  6
CONTINUOUS
 62
8
 10
88.999999999999
 20
472
 11
90.999999999999
 21
472
  0
LINE
  8
1
  6
CONTINUOUS
 62
8
 10
42.999999999998
 20
30.000000000001
 11
42.999999999999
 21
642
  0
LINE
  8
1
  6
CONTINUOUS
 62
8
 10
66.999999999999
 20
630
 11
42.999999999999
 21
630
  0
LINE
  8
1
  6
CONTINUOUS
 62
8
 10
54.999999999999
 20
618
 11
42.999999999999
 21
618
  0
LINE
  8
1
  6
CONTINUOUS
 62
8
 10
54.999999999999
 20
606
 11
42.999999999999
 21
606
  0
LINE
  8
1
  6
CONTINUOUS
 62
8
 10
54.999999999999
 20
594
 11
42.999999999999
 21
594
  0
LINE
  8
1
  6
CONTINUOUS
 62
8
 10
54.999999999999
 20
582
 11
42.999999999999
 21
582
  0
LINE
  8
1
  6
CONTINUOUS
 62
8
 10
66.999999999999
 20
570
 11
42.999999999999
 21
570
  0
LINE
  8
1
  6
CONTINUOUS
 62
8
 10
54.999999999999
 20
558
 11
42.999999999999
 21
558
  0
LINE
  8
1
  6
CONTINUOUS
 62
8
 10
54.999999999999
 20
546
 11
42.999999999999
 21
546
  0
LINE
  8
1
  6
CONTINUOUS
 62
8
 10
54.999999999999
 20
534
 11
42.999999999999
 21
534
  0
LINE
  8
1
  6
CONTINUOUS
 62
8
 10
54.999999999999
 20
522
 11
42.999999999999
 21
522
  0
LINE
  8
1
  6
CONTINUOUS
 62
8
 10
66.999999999999
 20
510
 11
42.999999999999
 21
510
  0
LINE
  8
1
  6
CONTINUOUS
 62
8
 10
54.999999999999
 20
498
 11
42.999999999999
 21
498
  0
LINE
  8
1
  6
CONTINUOUS
 62
8
 10
54.999999999999
 20
486
 11
42.999999999999
 21
486
  0
LINE
  8
1
  6
CONTINUOUS
 62
8
 10
54.999999999999
 20
474
 11
42.999999999999
 21
474
  0
LINE
  8
1
  6
CONTINUOUS
 62
8
 10
54.999999999999
 20
462
 11
42.999999999999
 21
462
  0
LINE
  8
1
  6
CONTINUOUS
 62
8
 10
66.999999999999
 20
450
 11
42.999999999999
 21
450
  0
LINE
  8
1
  6
CONTINUOUS
 62
8
 10
54.999999999999
 20
438
 11
42.999999999999
 21
438
  0
LINE
  8
1
  6
CONTINUOUS
 62
8
 10
54.999999999999
 20
426
 11
42.999999999999
 21
426
  0
LINE
  8
1
  6
CONTINUOUS
 62
8
 10
54.999999999999
 20
414
 11
42.999999999999
 21
414
  0
LINE
  8
1
  6
CONTINUOUS
 62
8
 10
54.999999999999
 20
402
 11
42.999999999999
 21
402
  0
LINE
  8
1
  6
CONTINUOUS
 62
8
 10
66.999999999998
 20
390
 11
42.999999999999
 21
390
  0
LINE
  8
1
  6
CONTINUOUS
 62
8
 10
54.999999999998
 20
378
 11
42.999999999999
 21
378
  0
LINE
  8
1
  6
CONTINUOUS
 62
8
 10
54.999999999998
 20
366
 11
42.999999999999
 21
366
  0
LINE
  8
1
  6
CONTINUOUS
 62
8
 10
54.999999999998
 20
354
 11
42.999999999999
 21
354
  0
LINE
  8
1
  6
CONTINUOUS
 62
8
 10
54.999999999998
 20
342
 11
42.999999999999
 21
342
  0
LINE
  8
1
  6
CONTINUOUS
 62
8
 10
66.999999999998
 20
330
 11
42.999999999999
 21
330
  0
LINE
  8
1
  6
CONTINUOUS
 62
8
 10
54.999999999998
 20
318
 11
42.999999999999
 21
318
  0
LINE
  8
1
  6
CONTINUOUS
 62
8
 10
54.999999999998
 20
306
 11
42.999999999999
 21
306
  0
LINE
  8
1
  6
CONTINUOUS
 62
8
 10
54.999999999998
 20
294
 11
42.999999999999
 21
294
  0
LINE
  8
1
  6
CONTINUOUS
 62
8
 10
54.999999999998
 20
282
 11
42.999999999999
 21
282
  0
LINE
  8
1
  6
CONTINUOUS
 62
8
 10
66.999999999998
 20
270
 11
42.999999999999
 21
270
  0
LINE
  8
1
  6
CONTINUOUS
 62
8
 10
54.999999999998
 20
258
 11
42.999999999999
 21
258
  0
LINE
  8
1
  6
CONTINUOUS
 62
8
 10
54.999999999998
 20
246
 11
42.999999999999
 21
246
  0
LINE
  8
1
  6
CONTINUOUS
 62
8
 10
54.999999999998
 20
234
 11
42.999999999999
 21
234
  0
LINE
  8
1
  6
CONTINUOUS
 62
8
 10
54.999999999998
 20
222
 11
42.999999999999
 21
222
  0
LINE
  8
1
  6
CONTINUOUS
 62
8
 10
66.999999999998
 20
210
 11
42.999999999999
 21
210
  0
LINE
  8
1
  6
CONTINUOUS
 62
8
 10
54.999999999998
 20
198
 11
42.999999999999
 21
198
  0
LINE
  8
1
  6
CONTINUOUS
 62
8
 10
54.999999999998
 20
186
 11
42.999999999999
 21
186
  0
LINE
  8
1
  6
CONTINUOUS
 62
8
 10
54.999999999998
 20
174
 11
42.999999999999
 21
174
  0
LINE
  8
1
  6
CONTINUOUS
 62
8
 10
54.999999999998
 20
162
 11
42.999999999999
 21
162
  0
LINE
  8
1
  6
CONTINUOUS
 62
8
 10
66.999999999998
 20
150
 11
42.999999999999
 21
150
  0
LINE
  8
1
  6
CONTINUOUS
 62
8
 10
54.999999999998
 20
78.000000000001
 11
42.999999999998
 21
78.000000000001
  0
LINE
  8
1
  6
CONTINUOUS
 62
8
 10
54.999999999998
 20
66.000000000001
 11
42.999999999998
 21
66.000000000001
  0
LINE
  8
1
  6
CONTINUOUS
 62
8
 10
54.999999999998
 20
54.000000000001
 11
42.999999999998
 21
54.000000000001
  0
LINE
  8
1
  6
CONTINUOUS
 62
8
 10
54.999999999998
 20
42.000000000001
 11
42.999999999998
 21
42.000000000001
  0
LINE
  8
1
  6
CONTINUOUS
 62
8
 10
66.999999999998
 20
30.000000000001
 11
42.999999999998
 21
30.000000000001
  0
LINE
  8
1
  6
CONTINUOUS
 62
8
 10
54.999999999998
 20
138
 11
42.999999999998
 21
138
  0
LINE
  8
1
  6
CONTINUOUS
 62
8
 10
54.999999999998
 20
126
 11
42.999999999998
 21
126
  0
LINE
  8
1
  6
CONTINUOUS
 62
8
 10
54.999999999998
 20
114
 11
42.999999999998
 21
114
  0
LINE
  8
1
  6
CONTINUOUS
 62
8
 10
54.999999999998
 20
102
 11
42.999999999998
 21
102
  0
LINE
  8
1
  6
CONTINUOUS
 62
8
 10
66.999999999998
 20
90.000000000001
 11
42.999999999998
 21
90.000000000001
  0
LINE
  8
1
  6
CONTINUOUS
 62
8
 10
48.999999999999
 20
633
 11
42.999999999999
 21
633
  0
LINE
  8
1
  6
CONTINUOUS
 62
8
 10
48.999999999999
 20
636
 11
42.999999999999
 21
636
  0
LINE
  8
1
  6
CONTINUOUS
 62
8
 10
48.999999999999
 20
639
 11
42.999999999999
 21
639
  0
LINE
  8
1
  6
CONTINUOUS
 62
8
 10
48.999999999999
 20
642
 11
42.999999999999
 21
642
  0
LINE
  8
1
  6
CONTINUOUS
 62
8
 10
45.999999999999
 20
631
 11
42.999999999999
 21
631
  0
LINE
  8
1
  6
CONTINUOUS
 62
8
 10
45.999999999999
 20
632
 11
42.999999999999
 21
632
  0
LINE
  8
1
  6
CONTINUOUS
 62
8
 10
45.999999999999
 20
634
 11
42.999999999999
 21
634
  0
LINE
  8
1
  6
CONTINUOUS
 62
8
 10
45.999999999999
 20
635
 11
42.999999999999
 21
635
  0
LINE
  8
1
  6
CONTINUOUS
 62
8
 10
45.999999999999
 20
637
 11
42.999999999999
 21
637
  0
LINE
  8
1
  6
CONTINUOUS
 62
8
 10
45.999999999999
 20
638
 11
42.999999999999
 21
638
  0
LINE
  8
1
  6
CONTINUOUS
 62
8
 10
45.999999999999
 20
640
 11
42.999999999999
 21
640
  0
LINE
  8
1
  6
CONTINUOUS
 62
8
 10
45.999999999999
 20
641
 11
42.999999999999
 21
641
  0
TEXT
  8
1
  6
CONTINUOUS
 62
8
 10
66.999999999999
 20
624.00079003503
 50
0
 40
12
  1
0
 41
0.6
  7
STANDARD
 72
0
  0
TEXT
  8
1
  6
CONTINUOUS
 62
8
 10
66.999999999999
 20
564.00079003503
 50
0
 40
12
  1
5 ft.
 41
0.6
  7
STANDARD
 72
0
  0
TEXT
  8
1
  6
CONTINUOUS
 62
8
 10
66.999999999999
 20
504.00079003503
 50
0
 40
12
  1
10
 41
0.6
  7
STANDARD
 72
0
  0
TEXT
  8
1
  6
CONTINUOUS
 62
8
 10
66.999999999999
 20
444.00079003503
 50
0
 40
12
  1
15
 41
0.6
  7
STANDARD
 72
0
  0
TEXT
  8
1
  6
CONTINUOUS
 62
8
 10
66.999999999998
 20
384.00079003503
 50
0
 40
12
  1
20
 41
0.6
  7
STANDARD
 72
0
  0
TEXT
  8
1
  6
CONTINUOUS
 62
8
 10
66.999999999998
 20
324.00079003503
 50
0
 40
12
  1
25
 41
0.6
  7
STANDARD
 72
0
  0
TEXT
  8
1
  6
CONTINUOUS
 62
8
 10
66.999999999998
 20
264.00079003503
 50
0
 40
12
  1
30
 41
0.6
  7
STANDARD
 72
0
  0
TEXT
  8
1
  6
CONTINUOUS
 62
8
 10
66.999999999998
 20
204.00079003503
 50
0
 40
12
  1
35
 41
0.6
  7
STANDARD
 72
0
  0
TEXT
  8
1
  6
CONTINUOUS
 62
8
 10
66.999999999998
 20
144.00079003503
 50
0
 40
12
  1
40
 41
0.6
  7
STANDARD
 72
0
  0
TEXT
  8
1
  6
CONTINUOUS
 62
8
 10
66.999999999998
 20
84.000790035026
 50
0
 40
12
  1
45
 41
0.6
  7
STANDARD
 72
0
  0
TEXT
  8
1
  6
CONTINUOUS
 62
8
 10
66.999999999998
 20
24.000790035026
 50
0
 40
12
  1
50
 41
0.6
  7
STANDARD
 72
0
  0
ENDSEC
  0
EOF
