999
dxflib 2.0.4.8
  0
SECTION
  2
HEADER
  9
$ACADVER
  1
AC1009
  9
$EXTMIN
 10
42.9999999999980034
 20
21.9999999999950013
 30
0.0
  9
$DIMASZ
 40
0.1
  9
$DIMGAP
 40
0.025
  9
$LIMMIN
 10
0.0
 20
0.0
  9
$AUPREC
 70
2
  9
$LUNITS
 70
2
  9
$EXTMAX
 10
969.5
 20
642.0000000000100044
 30
0.0
  9
$DIMEXO
 40
0.025
  9
$LIMMAX
 10
1020.0
 20
660.0
  9
$DIMTXT
 40
0.1
  9
$LUPREC
 70
2
  9
$DIMSTYLE
  2
Standard
  9
$PLIMMAX
 10
8.2677165354330722
 20
11.6929133858267722
  9
$PLIMMIN
 10
0.0
 20
0.0
  9
$DIMEXE
 40
0.05
  9
$AUNITS
 70
0
  0
ENDSEC
  0
SECTION
  2
TABLES
  0
TABLE
  2
VPORT
 70
1
  0
VPORT
  2
*Active
 70
0
 10
0.0
 20
0.0
 11
1.0
 21
1.0
 12
286.3055555555554861
 22
148.5
 13
0.0
 23
0.0
 14
10.0
 24
10.0
 15
10.0
 25
10.0
 16
0.0
 26
0.0
 36
1.0
 17
0.0
 27
0.0
 37
0.0
 40
297.0
 41
1.92798353909465
 42
50.0
 43
0.0
 44
0.0
 50
0.0
 51
0.0
 71
0
 72
100
 73
1
 74
3
 75
1
 76
1
 77
0
 78
0
  0
ENDTAB
  0
TABLE
  2
LTYPE
 70
19
  0
LTYPE
  2
CONTINUOUS
 70
0
  3
Solid line
 72
65
 73
0
 40
0.0
  0
LTYPE
  2
DOT
 70
0
  3
Dot . . . . . . . . . . . . . . . . . . . . . .
 72
65
 73
2
 40
6.3499999999999996
 49
0.0
 49
-6.3499999999999996
  0
LTYPE
  2
DOT2
 70
0
  3
Dot (.5x) .....................................
 72
65
 73
2
 40
3.1749999999999998
 49
0.0
 49
-3.1749999999999998
  0
LTYPE
  2
DOTX2
 70
0
  3
Dot (2x) .  .  .  .  .  .  .  .  .  .  .  .  .
 72
65
 73
2
 40
12.6999999999999993
 49
0.0
 49
-12.6999999999999993
  0
LTYPE
  2
DASHED
 70
0
  3
Dashed __ __ __ __ __ __ __ __ __ __ __ __ __ _
 72
65
 73
2
 40
19.0500000000000007
 49
12.6999999999999993
 49
-6.3499999999999996
  0
LTYPE
  2
DASHED2
 70
0
  3
Dashed (.5x) _ _ _ _ _ _ _ _ _ _ _ _ _ _ _ _ _
 72
65
 73
2
 40
9.5250000000000004
 49
6.3499999999999996
 49
-3.1749999999999998
  0
LTYPE
  2
DASHEDX2
 70
0
  3
Dashed (2x) ____  ____  ____  ____  ____  ___
 72
65
 73
2
 40
38.1000000000000014
 49
25.3999999999999986
 49
-12.6999999999999993
  0
LTYPE
  2
DASHDOT
 70
0
  3
Dash dot __ . __ . __ . __ . __ . __ . __ . __
 72
65
 73
4
 40
25.3999999999999986
 49
12.6999999999999993
 49
-6.3499999999999996
 49
0.0
 49
-6.3499999999999996
  0
LTYPE
  2
DASHDOT2
 70
0
  3
Dash dot (.5x) _._._._._._._._._._._._._._._.
 72
65
 73
4
 40
12.6999999999999993
 49
6.3499999999999996
 49
-3.1749999999999998
 49
0.0
 49
-3.1749999999999998
  0
LTYPE
  2
DASHDOTX2
 70
0
  3
Dash dot (2x) ____  .  ____  .  ____  .  ___
 72
65
 73
4
 40
50.7999999999999972
 49
25.3999999999999986
 49
-12.6999999999999993
 49
0.0
 49
-12.6999999999999993
  0
LTYPE
  2
DIVIDE
 70
0
  3
Divide ____ . . ____ . . ____ . . ____ . . ____
 72
65
 73
6
 40
31.75
 49
12.6999999999999993
 49
-6.3499999999999996
 49
0.0
 49
-6.3499999999999996
 49
0.0
 49
-6.3499999999999996
  0
LTYPE
  2
DIVIDE2
 70
0
  3
Divide (.5x) __..__..__..__..__..__..__..__.._
 72
65
 73
6
 40
15.875
 49
6.3499999999999996
 49
-3.1749999999999998
 49
0.0
 49
-3.1749999999999998
 49
0.0
 49
-3.1749999999999998
  0
LTYPE
  2
DIVIDEX2
 70
0
  3
Divide (2x) ________  .  .  ________  .  .  _
 72
65
 73
6
 40
63.5
 49
25.3999999999999986
 49
-12.6999999999999993
 49
0.0
 49
-12.6999999999999993
 49
0.0
 49
-12.6999999999999993
  0
LTYPE
  2
CENTER
 70
0
  3
Center ____ _ ____ _ ____ _ ____ _ ____ _ ____
 72
65
 73
4
 40
50.7999999999999972
 49
31.75
 49
-6.3499999999999996
 49
6.3499999999999996
 49
-6.3499999999999996
  0
LTYPE
  2
CENTER2
 70
0
  3
Center (.5x) ___ _ ___ _ ___ _ ___ _ ___ _ ___
 72
65
 73
4
 40
28.5749999999999993
 49
19.0500000000000007
 49
-3.1749999999999998
 49
3.1749999999999998
 49
-3.1749999999999998
  0
LTYPE
  2
CENTERX2
 70
0
  3
Center (2x) ________  __  ________  __  _____
 72
65
 73
4
 40
101.5999999999999943
 49
63.5
 49
-12.6999999999999993
 49
12.6999999999999993
 49
-12.6999999999999993
  0
LTYPE
  2
BORDER
 70
0
  3
Border __ __ . __ __ . __ __ . __ __ . __ __ .
 72
65
 73
6
 40
44.4500000000000028
 49
12.6999999999999993
 49
-6.3499999999999996
 49
12.6999999999999993
 49
-6.3499999999999996
 49
0.0
 49
-6.3499999999999996
  0
LTYPE
  2
BORDER2
 70
0
  3
Border (.5x) __.__.__.__.__.__.__.__.__.__.__.
 72
65
 73
6
 40
22.2250000000000014
 49
6.3499999999999996
 49
-3.1749999999999998
 49
6.3499999999999996
 49
-3.1749999999999998
 49
0.0
 49
-3.1749999999999998
  0
LTYPE
  2
BORDERX2
 70
0
  3
Border (2x) ____  ____  .  ____  ____  .  ___
 72
65
 73
6
 40
88.9000000000000057
 49
25.3999999999999986
 49
-12.6999999999999993
 49
25.3999999999999986
 49
-12.6999999999999993
 49
0.0
 49
-12.6999999999999993
  0
ENDTAB
  0
TABLE
  2
LAYER
 70
2
  0
LAYER
  2
0
 70
0
 62
7
  6
CONTINUOUS
  0
LAYER
  2
1
 70
0
 62
8
  6
CONTINUOUS
  0
ENDTAB
  0
TABLE
  2
STYLE
 70
1
  0
STYLE
  2
Standard
 70
0
 40
0.0
 41
0.75
 50
0.0
 71
0
 42
2.5
  3
txt
  4

  0
ENDTAB
  0
TABLE
  2
VIEW
 70
0
  0
ENDTAB
  0
TABLE
  2
UCS
 70
0
  0
ENDTAB
  0
TABLE
  2
APPID
 70
1
  0
APPID
  2
ACAD
 70
0
  0
ENDTAB
  0
TABLE
  2
DIMSTYLE
 70
1
  0
DIMSTYLE
  2
Standard
  3

  4

  5

  6

  7

 40
1.0
 41
0.1
 42
0.025
 43
3.75
 44
0.05
 45
0.0
 46
0.0
 47
0.0
 48
0.0
 70
0
 71
0
 72
0
 73
0
 74
0
 75
0
 76
0
 77
1
 78
8
140
0.1
141
2.5
142
0.0
143
0.03937007874016
144
1.0
145
0.0
146
1.0
147
0.025
170
0
171
3
172
1
173
0
174
0
175
0
176
0
177
0
178
0
  0
ENDTAB
  0
ENDSEC
  0
SECTION
  2
BLOCKS
  0
ENDSEC
  0
SECTION
  2
ENTITIES
  0
LINE
  8
1
 62
8
  6
CONTINUOUS
 10
963.5
 20
30.0000000000009983
 30
0.0
 11
963.5
 21
226.0
 31
0.0
  0
LINE
  8
1
 62
8
  6
CONTINUOUS
 10
120.5
 20
30.0000000000009983
 30
0.0
 11
321.5
 21
30.0000000000009983
 31
0.0
  0
LINE
  8
1
 62
8
  6
CONTINUOUS
 10
756.5
 20
232.0
 30
0.0
 11
963.5
 21
232.0
 31
0.0
  0
LINE
  8
1
 62
8
  6
CONTINUOUS
 10
756.5
 20
41.0
 30
0.0
 11
756.5
 21
172.0
 31
0.0
  0
LINE
  8
1
 62
8
  6
CONTINUOUS
 10
963.5
 20
232.0
 30
0.0
 11
963.5
 21
292.0
 31
0.0
  0
LINE
  8
1
 62
8
  6
CONTINUOUS
 10
774.4999999999899956
 20
634.0
 30
0.0
 11
963.5
 21
634.0
 31
0.0
  0
LINE
  8
1
 62
8
  6
CONTINUOUS
 10
552.5
 20
430.0
 30
0.0
 11
552.5
 21
439.0
 31
0.0
  0
LINE
  8
1
 62
8
  6
CONTINUOUS
 10
543.5
 20
430.0
 30
0.0
 11
552.5
 21
430.0
 31
0.0
  0
LINE
  8
1
 62
8
  6
CONTINUOUS
 10
543.5
 20
430.0
 30
0.0
 11
543.5
 21
439.0
 31
0.0
  0
LINE
  8
1
 62
8
  6
CONTINUOUS
 10
543.5
 20
439.0
 30
0.0
 11
552.5
 21
439.0
 31
0.0
  0
LINE
  8
1
 62
4
  6
CONTINUOUS
 10
764.0
 20
634.0
 30
0.0
 11
764.0
 21
439.0
 31
0.0
  0
LINE
  8
1
 62
4
  6
CONTINUOUS
 10
548.0
 20
634.0
 30
0.0
 11
548.0
 21
439.0
 31
0.0
  0
LINE
  8
1
 62
4
  6
CONTINUOUS
 10
332.0
 20
634.0
 30
0.0
 11
332.0
 21
439.0
 31
0.0
  0
LINE
  8
1
 62
8
  6
CONTINUOUS
 10
768.5
 20
430.0
 30
0.0
 11
768.5
 21
439.0
 31
0.0
  0
LINE
  8
1
 62
8
  6
CONTINUOUS
 10
759.5
 20
430.0
 30
0.0
 11
768.5
 21
430.0
 31
0.0
  0
LINE
  8
1
 62
8
  6
CONTINUOUS
 10
759.5
 20
430.0
 30
0.0
 11
759.5
 21
439.0
 31
0.0
  0
LINE
  8
1
 62
8
  6
CONTINUOUS
 10
759.5
 20
439.0
 30
0.0
 11
768.5
 21
439.0
 31
0.0
  0
LINE
  8
1
 62
8
  6
CONTINUOUS
 10
336.5
 20
430.0
 30
0.0
 11
336.5
 21
439.0
 31
0.0
  0
LINE
  8
1
 62
8
  6
CONTINUOUS
 10
327.5
 20
430.0
 30
0.0
 11
336.5
 21
430.0
 31
0.0
  0
LINE
  8
1
 62
8
  6
CONTINUOUS
 10
327.5
 20
430.0
 30
0.0
 11
327.5
 21
439.0
 31
0.0
  0
LINE
  8
1
 62
8
  6
CONTINUOUS
 10
327.5
 20
439.0
 30
0.0
 11
336.5
 21
439.0
 31
0.0
  0
LINE
  8
1
 62
8
  6
CONTINUOUS
 10
753.5
 20
634.0
 30
0.0
 11
753.5
 21
630.0
 31
0.0
  0
LINE
  8
1
 62
8
  6
CONTINUOUS
 10
774.5
 20
634.0
 30
0.0
 11
774.5
 21
630.0
 31
0.0
  0
LINE
  8
1
 62
8
  6
CONTINUOUS
 10
558.5
 20
634.0
 30
0.0
 11
558.5
 21
630.0
 31
0.0
  0
LINE
  8
1
 62
8
  6
CONTINUOUS
 10
537.5
 20
634.0
 30
0.0
 11
537.5
 21
630.0
 31
0.0
  0
LINE
  8
1
 62
8
  6
CONTINUOUS
 10
537.5
 20
630.0
 30
0.0
 11
558.5
 21
630.0
 31
0.0
  0
LINE
  8
1
 62
8
  6
CONTINUOUS
 10
753.5
 20
630.0
 30
0.0
 11
774.5
 21
630.0
 31
0.0
  0
LINE
  8
1
 62
8
  6
CONTINUOUS
 10
558.5
 20
634.0
 30
0.0
 11
753.5
 21
634.0
 31
0.0
  0
LINE
  8
1
 62
8
  6
CONTINUOUS
 10
569.4999999999899956
 20
642.0
 30
0.0
 11
569.4999999999899956
 21
634.0
 31
0.0
  0
LINE
  8
1
 62
8
  6
CONTINUOUS
 10
742.5
 20
642.0
 30
0.0
 11
742.5
 21
634.0
 31
0.0
  0
LINE
  8
1
 62
8
  6
CONTINUOUS
 10
120.5
 20
642.0
 30
0.0
 11
969.5
 21
642.0
 31
0.0
  0
LINE
  8
1
 62
8
  6
CONTINUOUS
 10
635.4999999999899956
 20
642.0
 30
0.0
 11
635.4999999999899956
 21
634.0
 31
0.0
  0
LINE
  8
1
 62
8
  6
CONTINUOUS
 10
676.5
 20
642.0000000000100044
 30
0.0
 11
676.5
 21
634.0000000000100044
 31
0.0
  0
LINE
  8
1
 62
8
  6
CONTINUOUS
 10
569.4999999999899956
 20
638.0
 30
0.0
 11
635.4999999999899956
 21
638.0
 31
0.0
  0
LINE
  8
1
 62
8
  6
CONTINUOUS
 10
676.5
 20
638.0000000000100044
 30
0.0
 11
742.5
 21
638.0
 31
0.0
  0
LINE
  8
1
 62
8
  6
CONTINUOUS
 10
785.4999999999899956
 20
642.0
 30
0.0
 11
785.4999999999899956
 21
634.0
 31
0.0
  0
LINE
  8
1
 62
8
  6
CONTINUOUS
 10
958.5
 20
642.0
 30
0.0
 11
958.5
 21
634.0
 31
0.0
  0
LINE
  8
1
 62
8
  6
CONTINUOUS
 10
851.4999999999899956
 20
642.0
 30
0.0
 11
851.4999999999899956
 21
634.0
 31
0.0
  0
LINE
  8
1
 62
8
  6
CONTINUOUS
 10
892.5
 20
642.0000000000100044
 30
0.0
 11
892.5
 21
634.0000000000100044
 31
0.0
  0
LINE
  8
1
 62
8
  6
CONTINUOUS
 10
785.4999999999899956
 20
638.0
 30
0.0
 11
851.4999999999899956
 21
638.0
 31
0.0
  0
LINE
  8
1
 62
8
  6
CONTINUOUS
 10
892.5
 20
638.0000000000100044
 30
0.0
 11
958.5
 21
638.0
 31
0.0
  0
LINE
  8
1
 62
8
  6
CONTINUOUS
 10
969.5
 20
22.0000000000009983
 30
0.0
 11
969.5
 21
292.0
 31
0.0
  0
LINE
  8
1
 62
8
  6
CONTINUOUS
 10
969.5
 20
364.0
 30
0.0
 11
969.5
 21
642.0
 31
0.0
  0
LINE
  8
1
 62
8
  6
CONTINUOUS
 10
963.5
 20
292.0
 30
0.0
 11
969.5
 21
292.0
 31
0.0
  0
LINE
  8
1
 62
8
  6
CONTINUOUS
 10
963.5
 20
364.0
 30
0.0
 11
963.5
 21
634.0
 31
0.0
  0
LINE
  8
1
 62
8
  6
CONTINUOUS
 10
963.5
 20
364.0
 30
0.0
 11
969.5
 21
364.0
 31
0.0
  0
LINE
  8
1
 62
8
  6
CONTINUOUS
 10
966.5
 20
364.0
 30
0.0
 11
966.5
 21
328.0
 31
0.0
  0
LINE
  8
1
 62
8
  6
CONTINUOUS
 10
966.5
 20
328.0
 30
0.0
 11
966.5
 21
292.0
 31
0.0
  0
LINE
  8
1
 62
8
  6
CONTINUOUS
 10
552.5
 20
634.0
 30
0.0
 11
552.5
 21
439.0
 31
0.0
  0
LINE
  8
1
 62
4
  6
CONTINUOUS
 10
764.0
 20
430.0
 30
0.0
 11
764.0
 21
223.0
 31
0.0
  0
LINE
  8
1
 62
8
  6
CONTINUOUS
 10
552.5
 20
214.0
 30
0.0
 11
552.5
 21
223.0
 31
0.0
  0
LINE
  8
1
 62
8
  6
CONTINUOUS
 10
543.5
 20
214.0
 30
0.0
 11
552.5
 21
214.0
 31
0.0
  0
LINE
  8
1
 62
8
  6
CONTINUOUS
 10
543.5
 20
214.0
 30
0.0
 11
543.5
 21
223.0
 31
0.0
  0
LINE
  8
1
 62
8
  6
CONTINUOUS
 10
543.5
 20
223.0
 30
0.0
 11
552.5
 21
223.0
 31
0.0
  0
LINE
  8
1
 62
8
  6
CONTINUOUS
 10
768.5
 20
214.0
 30
0.0
 11
768.5
 21
226.0
 31
0.0
  0
LINE
  8
1
 62
8
  6
CONTINUOUS
 10
759.5
 20
214.0
 30
0.0
 11
768.5
 21
214.0
 31
0.0
  0
LINE
  8
1
 62
8
  6
CONTINUOUS
 10
759.5
 20
214.0
 30
0.0
 11
759.5
 21
223.0
 31
0.0
  0
LINE
  8
1
 62
8
  6
CONTINUOUS
 10
759.5
 20
223.0
 30
0.0
 11
768.5
 21
223.0
 31
0.0
  0
LINE
  8
1
 62
8
  6
CONTINUOUS
 10
336.5
 20
214.0
 30
0.0
 11
336.5
 21
223.0
 31
0.0
  0
LINE
  8
1
 62
8
  6
CONTINUOUS
 10
327.5
 20
214.0
 30
0.0
 11
336.5
 21
214.0
 31
0.0
  0
LINE
  8
1
 62
8
  6
CONTINUOUS
 10
327.5
 20
214.0
 30
0.0
 11
327.5
 21
223.0
 31
0.0
  0
LINE
  8
1
 62
8
  6
CONTINUOUS
 10
327.5
 20
223.0
 30
0.0
 11
336.5
 21
223.0
 31
0.0
  0
LINE
  8
1
 62
4
  6
CONTINUOUS
 10
118.5
 20
218.5
 30
0.0
 11
327.5
 21
218.5
 31
0.0
  0
LINE
  8
1
 62
4
  6
CONTINUOUS
 10
336.5
 20
218.5
 30
0.0
 11
543.5
 21
218.5
 31
0.0
  0
LINE
  8
1
 62
4
  6
CONTINUOUS
 10
552.5
 20
218.5
 30
0.0
 11
759.5
 21
218.5
 31
0.0
  0
LINE
  8
1
 62
8
  6
CONTINUOUS
 10
324.5
 20
60.0000000000010019
 30
0.0
 11
324.5
 21
221.5
 31
0.0
  0
LINE
  8
1
 62
8
  6
CONTINUOUS
 10
336.5
 20
221.5
 30
0.0
 11
358.5
 21
221.5
 31
0.0
  0
LINE
  8
1
 62
8
  6
CONTINUOUS
 10
324.5
 20
221.5
 30
0.0
 11
327.5
 21
221.5
 31
0.0
  0
LINE
  8
1
 62
8
  6
CONTINUOUS
 10
170.5
 20
60.0000000000010019
 30
0.0
 11
206.5
 21
60.0000000000010019
 31
0.0
  0
LINE
  8
1
 62
8
  6
CONTINUOUS
 10
290.5
 20
60.0000000000010019
 30
0.0
 11
324.5
 21
60.0000000000010019
 31
0.0
  0
LINE
  8
1
 62
8
  6
CONTINUOUS
 10
254.5
 20
30.0000000000009983
 30
0.0
 11
254.5
 21
60.0000000000010019
 31
0.0
  0
LINE
  8
1
 62
8
  6
CONTINUOUS
 10
242.5
 20
30.0000000000009983
 30
0.0
 11
242.5
 21
60.0000000000010019
 31
0.0
  0
LINE
  8
1
 62
8
  6
CONTINUOUS
 10
242.5
 20
60.0000000000010019
 30
0.0
 11
254.5
 21
60.0000000000010019
 31
0.0
  0
LINE
  8
1
 62
8
  6
CONTINUOUS
 10
208.5
 20
33.0000000000010019
 30
0.0
 11
240.5
 21
33.0000000000010019
 31
0.0
  0
LINE
  8
1
 62
8
  6
CONTINUOUS
 10
208.5
 20
61.0000000000010019
 30
0.0
 11
240.5
 21
61.0000000000010019
 31
0.0
  0
LINE
  8
1
 62
8
  6
CONTINUOUS
 10
208.5
 20
33.0000000000010019
 30
0.0
 11
208.5
 21
61.0000000000010019
 31
0.0
  0
LINE
  8
1
 62
8
  6
CONTINUOUS
 10
240.5
 20
33.0000000000010019
 30
0.0
 11
240.5
 21
61.0000000000010019
 31
0.0
  0
LINE
  8
1
 62
8
  6
CONTINUOUS
 10
151.5
 20
79.0000000000009948
 30
0.0
 11
170.5
 21
60.0000000000010019
 31
0.0
  0
LINE
  8
1
 62
8
  6
CONTINUOUS
 10
121.5
 20
112.0
 30
0.0
 11
164.5
 21
112.0
 31
0.0
  0
LINE
  8
1
 62
8
  6
CONTINUOUS
 10
151.5
 20
79.0000000000009948
 30
0.0
 11
151.5
 21
118.0
 31
0.0
  0
LINE
  8
1
 62
8
  6
CONTINUOUS
 10
146.0043109856700028
 20
77.4246212024600027
 30
0.0
 11
167.9246212024600027
 21
55.5043109856770016
 31
0.0
  0
LINE
  8
1
 62
8
  6
CONTINUOUS
 10
130.4479617995700096
 20
61.868272016356002
 30
0.0
 11
152.3682720163500051
 21
39.947961799573001
 31
0.0
  0
LINE
  8
1
 62
8
  6
CONTINUOUS
 10
144.5900974232999943
 20
77.4246212024600027
 30
0.0
 11
130.4479617995700096
 21
63.2824855787290019
 31
0.0
  0
LINE
  8
1
 62
8
  6
CONTINUOUS
 10
167.9246212024600027
 20
54.0900974233040017
 30
0.0
 11
153.7824855787299896
 21
39.947961799573001
 31
0.0
  0
ARC
  8
1
 62
8
  6
CONTINUOUS
 10
131.1550685807600019
 20
62.5753787975420011
 30
0.0
 40
1.0
 50
135.0
 51
225.0
  0
ARC
  8
1
 62
8
  6
CONTINUOUS
 10
145.2972042044899865
 20
76.7175144212740037
 30
0.0
 40
1.0
 50
45.0000000000010019
 51
135.0
  0
ARC
  8
1
 62
8
  6
CONTINUOUS
 10
167.2175144212700104
 20
54.7972042044910026
 30
0.0
 40
1.0
 50
315.0
 51
45.0000000000010019
  0
ARC
  8
1
 62
8
  6
CONTINUOUS
 10
153.0753787975399973
 20
40.6550685807600019
 30
0.0
 40
1.0
 50
225.0
 51
315.0
  0
LINE
  8
1
 62
8
  6
CONTINUOUS
 10
155.3734758363999902
 20
63.8128156646190021
 30
0.0
 11
145.4739808997800026
 21
53.913320728007001
 31
0.0
  0
LINE
  8
1
 62
8
  6
CONTINUOUS
 10
144.4133207280000022
 20
74.7729707730109965
 30
0.0
 11
134.5138257913899906
 21
64.8734758363989954
 31
0.0
  0
LINE
  8
1
 62
8
  6
CONTINUOUS
 10
165.2729707730100017
 20
53.9133207280080029
 30
0.0
 11
155.3734758363999902
 21
44.0138257913960018
 31
0.0
  0
LINE
  8
1
 62
8
  6
CONTINUOUS
 10
145.8275342903799867
 20
74.7729707730109965
 30
0.0
 11
154.3128156646199898
 21
66.2876893987720024
 31
0.0
  0
LINE
  8
1
 62
8
  6
CONTINUOUS
 10
134.5138257913899906
 20
63.4592622740260026
 30
0.0
 11
142.9991071656299937
 21
54.9739808997870014
 31
0.0
  0
LINE
  8
1
 62
8
  6
CONTINUOUS
 10
145.4739808997800026
 20
52.4991071656340011
 30
0.0
 11
153.9592622740200056
 21
44.0138257913960018
 31
0.0
  0
LINE
  8
1
 62
8
  6
CONTINUOUS
 10
154.3128156646199898
 20
64.8734758363989954
 30
0.0
 11
144.4133207280000022
 21
54.9739808997870014
 31
0.0
  0
LINE
  8
1
 62
8
  6
CONTINUOUS
 10
156.7876893987699987
 20
63.8128156646190021
 30
0.0
 11
165.2729707730100017
 21
55.3275342903810028
 31
0.0
  0
ARC
  8
1
 62
8
  6
CONTINUOUS
 10
135.2209325725800113
 20
64.1663690552120016
 30
0.0
 40
1.0
 50
135.0
 51
225.0
  0
ARC
  8
1
 62
8
  6
CONTINUOUS
 10
145.1204275091899945
 20
74.0658639918240027
 30
0.0
 40
1.0
 50
45.0000000000010019
 51
135.0
  0
ARC
  8
1
 62
8
  6
CONTINUOUS
 10
153.6057088834299975
 20
65.5805826175860034
 30
0.0
 40
1.0
 50
315.0
 51
45.0000000000010019
  0
ARC
  8
1
 62
8
  6
CONTINUOUS
 10
143.7062139468199859
 20
55.6810876809740023
 30
0.0
 40
1.0
 50
225.0
 51
315.0
  0
ARC
  8
1
 62
8
  6
CONTINUOUS
 10
146.1810876809699948
 20
53.206213946821002
 30
0.0
 40
1.0
 50
135.0
 51
225.0
  0
ARC
  8
1
 62
8
  6
CONTINUOUS
 10
156.0805826175800064
 20
63.1057088834330031
 30
0.0
 40
1.0
 50
45.0000000000010019
 51
135.0
  0
ARC
  8
1
 62
8
  6
CONTINUOUS
 10
164.5658639918200095
 20
54.6204275091940019
 30
0.0
 40
1.0
 50
315.0
 51
45.0000000000010019
  0
ARC
  8
1
 62
8
  6
CONTINUOUS
 10
154.6663690552099979
 20
44.7209325725820008
 30
0.0
 40
1.0
 50
225.0
 51
315.0
  0
LINE
  8
1
 62
8
  6
CONTINUOUS
 10
121.5
 20
149.0
 30
0.0
 11
164.5
 21
149.0
 31
0.0
  0
LINE
  8
1
 62
8
  6
CONTINUOUS
 10
121.5
 20
112.0
 30
0.0
 11
121.5
 21
113.5
 31
0.0
  0
LINE
  8
1
 62
8
  6
CONTINUOUS
 10
164.5
 20
112.0
 30
0.0
 11
164.5
 21
113.5
 31
0.0
  0
LINE
  8
1
 62
8
  6
CONTINUOUS
 10
164.5
 20
147.5
 30
0.0
 11
164.5
 21
149.0
 31
0.0
  0
LINE
  8
1
 62
8
  6
CONTINUOUS
 10
121.5
 20
147.5
 30
0.0
 11
164.5
 21
147.5
 31
0.0
  0
LINE
  8
1
 62
8
  6
CONTINUOUS
 10
121.5
 20
147.5
 30
0.0
 11
121.5
 21
149.0
 31
0.0
  0
LINE
  8
1
 62
8
  6
CONTINUOUS
 10
121.5
 20
112.0
 30
0.0
 11
121.5
 21
147.5
 31
0.0
  0
LINE
  8
1
 62
8
  6
CONTINUOUS
 10
121.5
 20
113.5
 30
0.0
 11
164.5
 21
113.5
 31
0.0
  0
LINE
  8
1
 62
8
  6
CONTINUOUS
 10
131.5
 20
113.5
 30
0.0
 11
131.5
 21
147.5
 31
0.0
  0
LINE
  8
1
 62
8
  6
CONTINUOUS
 10
141.5
 20
113.5
 30
0.0
 11
141.5
 21
147.5
 31
0.0
  0
LINE
  8
1
 62
8
  6
CONTINUOUS
 10
151.5
 20
113.5
 30
0.0
 11
151.5
 21
147.5
 31
0.0
  0
LINE
  8
1
 62
8
  6
CONTINUOUS
 10
161.5
 20
113.5
 30
0.0
 11
161.5
 21
147.5
 31
0.0
  0
LINE
  8
1
 62
8
  6
CONTINUOUS
 10
124.5
 20
91.0000000000009948
 30
0.0
 11
124.5
 21
112.0
 31
0.0
  0
LINE
  8
1
 62
8
  6
CONTINUOUS
 10
120.5
 20
91.0000000000009948
 30
0.0
 11
124.5
 21
91.0000000000009948
 31
0.0
  0
LINE
  8
1
 62
8
  6
CONTINUOUS
 10
120.5
 20
170.0
 30
0.0
 11
124.5
 21
170.0
 31
0.0
  0
LINE
  8
1
 62
8
  6
CONTINUOUS
 10
124.5
 20
149.0
 30
0.0
 11
124.5
 21
170.0
 31
0.0
  0
LINE
  8
1
 62
4
  6
CONTINUOUS
 10
548.0
 20
430.0
 30
0.0
 11
548.0
 21
223.0
 31
0.0
  0
LINE
  8
1
 62
4
  6
CONTINUOUS
 10
332.0
 20
430.0
 30
0.0
 11
332.0
 21
223.0
 31
0.0
  0
LINE
  8
1
 62
4
  6
CONTINUOUS
 10
548.0
 20
214.0
 30
0.0
 11
548.0
 21
41.0
 31
0.0
  0
LINE
  8
1
 62
4
  6
CONTINUOUS
 10
332.0
 20
214.0
 30
0.0
 11
332.0
 21
41.0
 31
0.0
  0
LINE
  8
1
 62
8
  6
CONTINUOUS
 10
537.5
 20
34.0000000000010019
 30
0.0
 11
537.5
 21
30.0000000000009983
 31
0.0
  0
LINE
  8
1
 62
8
  6
CONTINUOUS
 10
558.5
 20
34.0000000000010019
 30
0.0
 11
558.5
 21
30.0000000000009983
 31
0.0
  0
LINE
  8
1
 62
8
  6
CONTINUOUS
 10
537.5
 20
34.0000000000010019
 30
0.0
 11
558.5
 21
34.0000000000010019
 31
0.0
  0
LINE
  8
1
 62
8
  6
CONTINUOUS
 10
558.5
 20
30.0000000000009983
 30
0.0
 11
753.5
 21
30.0000000000009983
 31
0.0
  0
LINE
  8
1
 62
8
  6
CONTINUOUS
 10
753.5
 20
34.0000000000010019
 30
0.0
 11
753.5
 21
30.0000000000009983
 31
0.0
  0
LINE
  8
1
 62
8
  6
CONTINUOUS
 10
774.5
 20
34.0000000000010019
 30
0.0
 11
774.5
 21
30.0000000000009983
 31
0.0
  0
LINE
  8
1
 62
8
  6
CONTINUOUS
 10
753.5
 20
34.0000000000010019
 30
0.0
 11
774.5
 21
34.0000000000010019
 31
0.0
  0
LINE
  8
1
 62
8
  6
CONTINUOUS
 10
321.5
 20
34.0000000000019966
 30
0.0
 11
321.5
 21
30.0000000000009983
 31
0.0
  0
LINE
  8
1
 62
8
  6
CONTINUOUS
 10
342.5
 20
34.0000000000019966
 30
0.0
 11
342.5
 21
30.0000000000009983
 31
0.0
  0
LINE
  8
1
 62
8
  6
CONTINUOUS
 10
321.5
 20
34.0000000000019966
 30
0.0
 11
342.5
 21
34.0000000000019966
 31
0.0
  0
LINE
  8
1
 62
8
  6
CONTINUOUS
 10
774.5
 20
30.0000000000009983
 30
0.0
 11
963.5
 21
30.0000000000009983
 31
0.0
  0
LINE
  8
1
 62
8
  6
CONTINUOUS
 10
342.5
 20
30.0000000000009983
 30
0.0
 11
537.5
 21
30.0000000000009983
 31
0.0
  0
LINE
  8
1
 62
4
  6
CONTINUOUS
 10
764.0
 20
214.0
 30
0.0
 11
764.0
 21
41.0
 31
0.0
  0
LINE
  8
1
 62
8
  6
CONTINUOUS
 10
120.5
 20
22.0000000000009983
 30
0.0
 11
969.5
 21
22.0000000000009983
 31
0.0
  0
LINE
  8
1
 62
8
  6
CONTINUOUS
 10
570.5
 20
30.0000000000009983
 30
0.0
 11
570.5
 21
22.0000000000009983
 31
0.0
  0
LINE
  8
1
 62
8
  6
CONTINUOUS
 10
741.5
 20
30.0000000000009983
 30
0.0
 11
741.5
 21
22.0000000000009983
 31
0.0
  0
LINE
  8
1
 62
8
  6
CONTINUOUS
 10
630.5
 20
30.0000000000009983
 30
0.0
 11
630.5
 21
22.0000000000009983
 31
0.0
  0
LINE
  8
1
 62
8
  6
CONTINUOUS
 10
681.5
 20
29.9999999999950013
 30
0.0
 11
681.5
 21
21.9999999999950013
 31
0.0
  0
LINE
  8
1
 62
8
  6
CONTINUOUS
 10
570.5
 20
26.0000000000009983
 30
0.0
 11
630.5
 21
26.0000000000009983
 31
0.0
  0
LINE
  8
1
 62
8
  6
CONTINUOUS
 10
681.5
 20
25.9999999999950013
 30
0.0
 11
741.5
 21
26.0000000000009983
 31
0.0
  0
LINE
  8
1
 62
8
  6
CONTINUOUS
 10
786.5
 20
30.0000000000009983
 30
0.0
 11
786.5
 21
22.0000000000009983
 31
0.0
  0
LINE
  8
1
 62
8
  6
CONTINUOUS
 10
957.5
 20
30.0000000000009983
 30
0.0
 11
957.5
 21
22.0000000000009983
 31
0.0
  0
LINE
  8
1
 62
8
  6
CONTINUOUS
 10
846.5
 20
30.0000000000009983
 30
0.0
 11
846.5
 21
22.0000000000009983
 31
0.0
  0
LINE
  8
1
 62
8
  6
CONTINUOUS
 10
897.5
 20
29.9999999999950013
 30
0.0
 11
897.5
 21
21.9999999999950013
 31
0.0
  0
LINE
  8
1
 62
8
  6
CONTINUOUS
 10
786.5
 20
26.0000000000009983
 30
0.0
 11
846.5
 21
26.0000000000009983
 31
0.0
  0
LINE
  8
1
 62
8
  6
CONTINUOUS
 10
897.5
 20
25.9999999999950013
 30
0.0
 11
957.5
 21
26.0000000000009983
 31
0.0
  0
LINE
  8
1
 62
8
  6
CONTINUOUS
 10
354.5
 20
30.0000000000020002
 30
0.0
 11
354.5
 21
22.0000000000020002
 31
0.0
  0
LINE
  8
1
 62
8
  6
CONTINUOUS
 10
525.5
 20
30.0000000000020002
 30
0.0
 11
525.5
 21
22.0000000000020002
 31
0.0
  0
LINE
  8
1
 62
8
  6
CONTINUOUS
 10
414.5
 20
30.0000000000020002
 30
0.0
 11
414.5
 21
22.0000000000020002
 31
0.0
  0
LINE
  8
1
 62
8
  6
CONTINUOUS
 10
465.5
 20
29.9999999999959996
 30
0.0
 11
465.5
 21
21.9999999999959996
 31
0.0
  0
LINE
  8
1
 62
8
  6
CONTINUOUS
 10
354.5
 20
26.0000000000020002
 30
0.0
 11
414.5
 21
26.0000000000020002
 31
0.0
  0
LINE
  8
1
 62
8
  6
CONTINUOUS
 10
465.5
 20
25.9999999999959996
 30
0.0
 11
525.5
 21
26.0000000000020002
 31
0.0
  0
LINE
  8
1
 62
8
  6
CONTINUOUS
 10
138.5
 20
30.0000000000020002
 30
0.0
 11
138.5
 21
22.0000000000020002
 31
0.0
  0
LINE
  8
1
 62
8
  6
CONTINUOUS
 10
309.5
 20
30.0000000000020002
 30
0.0
 11
309.5
 21
22.0000000000020002
 31
0.0
  0
LINE
  8
1
 62
8
  6
CONTINUOUS
 10
198.5
 20
30.0000000000020002
 30
0.0
 11
198.5
 21
22.0000000000020002
 31
0.0
  0
LINE
  8
1
 62
8
  6
CONTINUOUS
 10
249.5
 20
29.9999999999959996
 30
0.0
 11
249.5
 21
21.9999999999959996
 31
0.0
  0
LINE
  8
1
 62
8
  6
CONTINUOUS
 10
138.5
 20
26.0000000000020002
 30
0.0
 11
198.5
 21
26.0000000000020002
 31
0.0
  0
LINE
  8
1
 62
8
  6
CONTINUOUS
 10
249.5
 20
25.9999999999959996
 30
0.0
 11
309.5
 21
26.0000000000020002
 31
0.0
  0
LINE
  8
1
 62
8
  6
CONTINUOUS
 10
118.5
 20
214.0
 30
0.0
 11
120.5
 21
214.0
 31
0.0
  0
LINE
  8
1
 62
8
  6
CONTINUOUS
 10
120.5
 20
170.0
 30
0.0
 11
120.5
 21
214.0
 31
0.0
  0
LINE
  8
1
 62
8
  6
CONTINUOUS
 10
118.5
 20
214.0
 30
0.0
 11
118.5
 21
235.0
 31
0.0
  0
LINE
  8
1
 62
8
  6
CONTINUOUS
 10
104.5
 20
235.0
 30
0.0
 11
118.5
 21
235.0
 31
0.0
  0
LINE
  8
1
 62
8
  6
CONTINUOUS
 10
104.5
 20
271.0
 30
0.0
 11
118.5
 21
271.0
 31
0.0
  0
LINE
  8
1
 62
8
  6
CONTINUOUS
 10
118.5
 20
292.0
 30
0.0
 11
120.5
 21
292.0
 31
0.0
  0
LINE
  8
1
 62
8
  6
CONTINUOUS
 10
118.5
 20
271.0
 30
0.0
 11
118.5
 21
292.0
 31
0.0
  0
LINE
  8
1
 62
8
  6
CONTINUOUS
 10
120.5
 20
292.0
 30
0.0
 11
120.5
 21
436.0
 31
0.0
  0
LINE
  8
1
 62
8
  6
CONTINUOUS
 10
488.5
 20
436.0
 30
0.0
 11
488.5
 21
442.0
 31
0.0
  0
LINE
  8
1
 62
8
  6
CONTINUOUS
 10
419.5
 20
436.0
 30
0.0
 11
419.5
 21
442.0
 31
0.0
  0
LINE
  8
1
 62
8
  6
CONTINUOUS
 10
120.5
 20
30.0000000000009983
 30
0.0
 11
120.5
 21
91.0000000000009948
 31
0.0
  0
LINE
  8
1
 62
4
  6
CONTINUOUS
 10
120.5
 20
364.0
 30
0.0
 11
963.5
 21
364.0
 31
0.0
  0
LINE
  8
1
 62
4
  6
CONTINUOUS
 10
120.5
 20
292.0
 30
0.0
 11
963.5
 21
292.0
 31
0.0
  0
LINE
  8
1
 62
8
  6
CONTINUOUS
 10
530.0
 20
177.0
 30
0.0
 11
599.0
 21
246.0
 31
0.0
  0
LINE
  8
1
 62
8
  6
CONTINUOUS
 10
530.0
 20
177.0
 30
0.0
 11
530.0
 21
30.0000000000009983
 31
0.0
  0
LINE
  8
1
 62
4
  6
CONTINUOUS
 10
552.5
 20
434.5
 30
0.0
 11
759.5
 21
434.5
 31
0.0
  0
LINE
  8
1
 62
8
  6
CONTINUOUS
 10
120.5
 20
436.0
 30
0.0
 11
207.5
 21
436.0
 31
0.0
  0
LINE
  8
1
 62
8
  6
CONTINUOUS
 10
120.5
 20
442.0
 30
0.0
 11
207.5
 21
442.0
 31
0.0
  0
LINE
  8
1
 62
8
  6
CONTINUOUS
 10
273.5
 20
436.0
 30
0.0
 11
327.5
 21
436.0
 31
0.0
  0
LINE
  8
1
 62
8
  6
CONTINUOUS
 10
273.5
 20
442.0
 30
0.0
 11
327.5
 21
442.0
 31
0.0
  0
LINE
  8
1
 62
8
  6
CONTINUOUS
 10
336.5
 20
436.0
 30
0.0
 11
419.5
 21
436.0
 31
0.0
  0
LINE
  8
1
 62
8
  6
CONTINUOUS
 10
488.5
 20
436.0
 30
0.0
 11
543.5
 21
436.0
 31
0.0
  0
LINE
  8
1
 62
8
  6
CONTINUOUS
 10
336.5
 20
442.0
 30
0.0
 11
419.5
 21
442.0
 31
0.0
  0
LINE
  8
1
 62
8
  6
CONTINUOUS
 10
488.5
 20
442.0
 30
0.0
 11
543.5
 21
442.0
 31
0.0
  0
LINE
  8
1
 62
8
  6
CONTINUOUS
 10
273.5
 20
436.0
 30
0.0
 11
273.5
 21
442.0
 31
0.0
  0
LINE
  8
1
 62
8
  6
CONTINUOUS
 10
207.5
 20
436.0
 30
0.0
 11
207.5
 21
442.0
 31
0.0
  0
LINE
  8
1
 62
8
  6
CONTINUOUS
 10
120.5
 20
642.0
 30
0.0
 11
120.5
 21
442.0
 31
0.0
  0
LINE
  8
1
 62
8
  6
CONTINUOUS
 10
120.5
 20
66.0000000000009948
 30
0.0
 11
156.5
 21
30.0000000000009983
 31
0.0
  0
LINE
  8
1
 62
8
  6
CONTINUOUS
 10
206.5
 20
30.0000000000009983
 30
0.0
 11
206.5
 21
60.0000000000010019
 31
0.0
  0
LINE
  8
1
 62
8
  6
CONTINUOUS
 10
290.5
 20
30.0000000000009983
 30
0.0
 11
290.5
 21
60.0000000000010019
 31
0.0
  0
LINE
  8
1
 62
8
  6
CONTINUOUS
 10
358.5
 20
30.0000000000009983
 30
0.0
 11
358.5
 21
221.5
 31
0.0
  0
LINE
  8
1
 62
8
  6
CONTINUOUS
 10
578.0
 20
174.0883117545699861
 30
0.0
 11
578.0
 21
30.0000000000009983
 31
0.0
  0
LINE
  8
1
 62
8
  6
CONTINUOUS
 10
578.0
 20
174.0883117545699861
 30
0.0
 11
601.9116882454300139
 21
198.0
 31
0.0
  0
LINE
  8
1
 62
8
  6
CONTINUOUS
 10
601.9116882454300139
 20
198.0
 30
0.0
 11
684.5
 21
198.0
 31
0.0
  0
LINE
  8
1
 62
8
  6
CONTINUOUS
 10
601.9116882454300139
 20
246.0
 30
0.0
 11
684.5
 21
246.0
 31
0.0
  0
LINE
  8
1
 62
8
  6
CONTINUOUS
 10
684.5
 20
198.0
 30
0.0
 11
684.5
 21
246.0
 31
0.0
  0
LINE
  8
1
 62
8
  6
CONTINUOUS
 10
762.5
 20
41.0
 30
0.0
 11
762.5
 21
172.0
 31
0.0
  0
LINE
  8
1
 62
8
  6
CONTINUOUS
 10
768.5
 20
226.0
 30
0.0
 11
963.5
 21
226.0
 31
0.0
  0
LINE
  8
1
 62
8
  6
CONTINUOUS
 10
756.5
 20
208.0
 30
0.0
 11
762.5
 21
208.0
 31
0.0
  0
LINE
  8
1
 62
8
  6
CONTINUOUS
 10
756.5
 20
208.0
 30
0.0
 11
756.5
 21
232.0
 31
0.0
  0
LINE
  8
1
 62
8
  6
CONTINUOUS
 10
756.5
 20
172.0
 30
0.0
 11
762.5
 21
172.0
 31
0.0
  0
LINE
  8
1
 62
8
  6
CONTINUOUS
 10
762.5
 20
208.0
 30
0.0
 11
762.5
 21
214.0
 31
0.0
  0
LINE
  8
1
 62
8
  6
CONTINUOUS
 10
759.5
 20
208.0
 30
0.0
 11
759.5
 21
172.0
 31
0.0
  0
LINE
  8
1
 62
8
  6
CONTINUOUS
 10
543.5
 20
501.0
 30
0.0
 11
552.5
 21
501.0
 31
0.0
  0
LINE
  8
1
 62
8
  6
CONTINUOUS
 10
88.9999999999990052
 20
472.0
 30
0.0
 11
90.9999999999990052
 21
472.0
 31
0.0
  0
LINE
  8
1
 62
8
  6
CONTINUOUS
 10
42.9999999999980034
 20
30.0000000000009983
 30
0.0
 11
42.9999999999989981
 21
642.0
 31
0.0
  0
LINE
  8
1
 62
8
  6
CONTINUOUS
 10
66.9999999999990052
 20
630.0
 30
0.0
 11
42.9999999999989981
 21
630.0
 31
0.0
  0
LINE
  8
1
 62
8
  6
CONTINUOUS
 10
54.9999999999989981
 20
618.0
 30
0.0
 11
42.9999999999989981
 21
618.0
 31
0.0
  0
LINE
  8
1
 62
8
  6
CONTINUOUS
 10
54.9999999999989981
 20
606.0
 30
0.0
 11
42.9999999999989981
 21
606.0
 31
0.0
  0
LINE
  8
1
 62
8
  6
CONTINUOUS
 10
54.9999999999989981
 20
594.0
 30
0.0
 11
42.9999999999989981
 21
594.0
 31
0.0
  0
LINE
  8
1
 62
8
  6
CONTINUOUS
 10
54.9999999999989981
 20
582.0
 30
0.0
 11
42.9999999999989981
 21
582.0
 31
0.0
  0
LINE
  8
1
 62
8
  6
CONTINUOUS
 10
66.9999999999990052
 20
570.0
 30
0.0
 11
42.9999999999989981
 21
570.0
 31
0.0
  0
LINE
  8
1
 62
8
  6
CONTINUOUS
 10
54.9999999999989981
 20
558.0
 30
0.0
 11
42.9999999999989981
 21
558.0
 31
0.0
  0
LINE
  8
1
 62
8
  6
CONTINUOUS
 10
54.9999999999989981
 20
546.0
 30
0.0
 11
42.9999999999989981
 21
546.0
 31
0.0
  0
LINE
  8
1
 62
8
  6
CONTINUOUS
 10
54.9999999999989981
 20
534.0
 30
0.0
 11
42.9999999999989981
 21
534.0
 31
0.0
  0
LINE
  8
1
 62
8
  6
CONTINUOUS
 10
54.9999999999989981
 20
522.0
 30
0.0
 11
42.9999999999989981
 21
522.0
 31
0.0
  0
LINE
  8
1
 62
8
  6
CONTINUOUS
 10
66.9999999999990052
 20
510.0
 30
0.0
 11
42.9999999999989981
 21
510.0
 31
0.0
  0
LINE
  8
1
 62
8
  6
CONTINUOUS
 10
54.9999999999989981
 20
498.0
 30
0.0
 11
42.9999999999989981
 21
498.0
 31
0.0
  0
LINE
  8
1
 62
8
  6
CONTINUOUS
 10
54.9999999999989981
 20
486.0
 30
0.0
 11
42.9999999999989981
 21
486.0
 31
0.0
  0
LINE
  8
1
 62
8
  6
CONTINUOUS
 10
54.9999999999989981
 20
474.0
 30
0.0
 11
42.9999999999989981
 21
474.0
 31
0.0
  0
LINE
  8
1
 62
8
  6
CONTINUOUS
 10
54.9999999999989981
 20
462.0
 30
0.0
 11
42.9999999999989981
 21
462.0
 31
0.0
  0
LINE
  8
1
 62
8
  6
CONTINUOUS
 10
66.9999999999990052
 20
450.0
 30
0.0
 11
42.9999999999989981
 21
450.0
 31
0.0
  0
LINE
  8
1
 62
8
  6
CONTINUOUS
 10
54.9999999999989981
 20
438.0
 30
0.0
 11
42.9999999999989981
 21
438.0
 31
0.0
  0
LINE
  8
1
 62
8
  6
CONTINUOUS
 10
54.9999999999989981
 20
426.0
 30
0.0
 11
42.9999999999989981
 21
426.0
 31
0.0
  0
LINE
  8
1
 62
8
  6
CONTINUOUS
 10
54.9999999999989981
 20
414.0
 30
0.0
 11
42.9999999999989981
 21
414.0
 31
0.0
  0
LINE
  8
1
 62
8
  6
CONTINUOUS
 10
54.9999999999989981
 20
402.0
 30
0.0
 11
42.9999999999989981
 21
402.0
 31
0.0
  0
LINE
  8
1
 62
8
  6
CONTINUOUS
 10
66.9999999999979963
 20
390.0
 30
0.0
 11
42.9999999999989981
 21
390.0
 31
0.0
  0
LINE
  8
1
 62
8
  6
CONTINUOUS
 10
54.9999999999980034
 20
378.0
 30
0.0
 11
42.9999999999989981
 21
378.0
 31
0.0
  0
LINE
  8
1
 62
8
  6
CONTINUOUS
 10
54.9999999999980034
 20
366.0
 30
0.0
 11
42.9999999999989981
 21
366.0
 31
0.0
  0
LINE
  8
1
 62
8
  6
CONTINUOUS
 10
54.9999999999980034
 20
354.0
 30
0.0
 11
42.9999999999989981
 21
354.0
 31
0.0
  0
LINE
  8
1
 62
8
  6
CONTINUOUS
 10
54.9999999999980034
 20
342.0
 30
0.0
 11
42.9999999999989981
 21
342.0
 31
0.0
  0
LINE
  8
1
 62
8
  6
CONTINUOUS
 10
66.9999999999979963
 20
330.0
 30
0.0
 11
42.9999999999989981
 21
330.0
 31
0.0
  0
LINE
  8
1
 62
8
  6
CONTINUOUS
 10
54.9999999999980034
 20
318.0
 30
0.0
 11
42.9999999999989981
 21
318.0
 31
0.0
  0
LINE
  8
1
 62
8
  6
CONTINUOUS
 10
54.9999999999980034
 20
306.0
 30
0.0
 11
42.9999999999989981
 21
306.0
 31
0.0
  0
LINE
  8
1
 62
8
  6
CONTINUOUS
 10
54.9999999999980034
 20
294.0
 30
0.0
 11
42.9999999999989981
 21
294.0
 31
0.0
  0
LINE
  8
1
 62
8
  6
CONTINUOUS
 10
54.9999999999980034
 20
282.0
 30
0.0
 11
42.9999999999989981
 21
282.0
 31
0.0
  0
LINE
  8
1
 62
8
  6
CONTINUOUS
 10
66.9999999999979963
 20
270.0
 30
0.0
 11
42.9999999999989981
 21
270.0
 31
0.0
  0
LINE
  8
1
 62
8
  6
CONTINUOUS
 10
54.9999999999980034
 20
258.0
 30
0.0
 11
42.9999999999989981
 21
258.0
 31
0.0
  0
LINE
  8
1
 62
8
  6
CONTINUOUS
 10
54.9999999999980034
 20
246.0
 30
0.0
 11
42.9999999999989981
 21
246.0
 31
0.0
  0
LINE
  8
1
 62
8
  6
CONTINUOUS
 10
54.9999999999980034
 20
234.0
 30
0.0
 11
42.9999999999989981
 21
234.0
 31
0.0
  0
LINE
  8
1
 62
8
  6
CONTINUOUS
 10
54.9999999999980034
 20
222.0
 30
0.0
 11
42.9999999999989981
 21
222.0
 31
0.0
  0
LINE
  8
1
 62
8
  6
CONTINUOUS
 10
66.9999999999979963
 20
210.0
 30
0.0
 11
42.9999999999989981
 21
210.0
 31
0.0
  0
LINE
  8
1
 62
8
  6
CONTINUOUS
 10
54.9999999999980034
 20
198.0
 30
0.0
 11
42.9999999999989981
 21
198.0
 31
0.0
  0
LINE
  8
1
 62
8
  6
CONTINUOUS
 10
54.9999999999980034
 20
186.0
 30
0.0
 11
42.9999999999989981
 21
186.0
 31
0.0
  0
LINE
  8
1
 62
8
  6
CONTINUOUS
 10
54.9999999999980034
 20
174.0
 30
0.0
 11
42.9999999999989981
 21
174.0
 31
0.0
  0
LINE
  8
1
 62
8
  6
CONTINUOUS
 10
54.9999999999980034
 20
162.0
 30
0.0
 11
42.9999999999989981
 21
162.0
 31
0.0
  0
LINE
  8
1
 62
8
  6
CONTINUOUS
 10
66.9999999999979963
 20
150.0
 30
0.0
 11
42.9999999999989981
 21
150.0
 31
0.0
  0
LINE
  8
1
 62
8
  6
CONTINUOUS
 10
54.9999999999980034
 20
78.0000000000009948
 30
0.0
 11
42.9999999999980034
 21
78.0000000000009948
 31
0.0
  0
LINE
  8
1
 62
8
  6
CONTINUOUS
 10
54.9999999999980034
 20
66.0000000000009948
 30
0.0
 11
42.9999999999980034
 21
66.0000000000009948
 31
0.0
  0
LINE
  8
1
 62
8
  6
CONTINUOUS
 10
54.9999999999980034
 20
54.0000000000010019
 30
0.0
 11
42.9999999999980034
 21
54.0000000000010019
 31
0.0
  0
LINE
  8
1
 62
8
  6
CONTINUOUS
 10
54.9999999999980034
 20
42.0000000000010019
 30
0.0
 11
42.9999999999980034
 21
42.0000000000010019
 31
0.0
  0
LINE
  8
1
 62
8
  6
CONTINUOUS
 10
66.9999999999979963
 20
30.0000000000009983
 30
0.0
 11
42.9999999999980034
 21
30.0000000000009983
 31
0.0
  0
LINE
  8
1
 62
8
  6
CONTINUOUS
 10
54.9999999999980034
 20
138.0
 30
0.0
 11
42.9999999999980034
 21
138.0
 31
0.0
  0
LINE
  8
1
 62
8
  6
CONTINUOUS
 10
54.9999999999980034
 20
126.0
 30
0.0
 11
42.9999999999980034
 21
126.0
 31
0.0
  0
LINE
  8
1
 62
8
  6
CONTINUOUS
 10
54.9999999999980034
 20
114.0
 30
0.0
 11
42.9999999999980034
 21
114.0
 31
0.0
  0
LINE
  8
1
 62
8
  6
CONTINUOUS
 10
54.9999999999980034
 20
102.0
 30
0.0
 11
42.9999999999980034
 21
102.0
 31
0.0
  0
LINE
  8
1
 62
8
  6
CONTINUOUS
 10
66.9999999999979963
 20
90.0000000000009948
 30
0.0
 11
42.9999999999980034
 21
90.0000000000009948
 31
0.0
  0
LINE
  8
1
 62
8
  6
CONTINUOUS
 10
48.9999999999989981
 20
633.0
 30
0.0
 11
42.9999999999989981
 21
633.0
 31
0.0
  0
LINE
  8
1
 62
8
  6
CONTINUOUS
 10
48.9999999999989981
 20
636.0
 30
0.0
 11
42.9999999999989981
 21
636.0
 31
0.0
  0
LINE
  8
1
 62
8
  6
CONTINUOUS
 10
48.9999999999989981
 20
639.0
 30
0.0
 11
42.9999999999989981
 21
639.0
 31
0.0
  0
LINE
  8
1
 62
8
  6
CONTINUOUS
 10
48.9999999999989981
 20
642.0
 30
0.0
 11
42.9999999999989981
 21
642.0
 31
0.0
  0
LINE
  8
1
 62
8
  6
CONTINUOUS
 10
45.9999999999989981
 20
631.0
 30
0.0
 11
42.9999999999989981
 21
631.0
 31
0.0
  0
LINE
  8
1
 62
8
  6
CONTINUOUS
 10
45.9999999999989981
 20
632.0
 30
0.0
 11
42.9999999999989981
 21
632.0
 31
0.0
  0
LINE
  8
1
 62
8
  6
CONTINUOUS
 10
45.9999999999989981
 20
634.0
 30
0.0
 11
42.9999999999989981
 21
634.0
 31
0.0
  0
LINE
  8
1
 62
8
  6
CONTINUOUS
 10
45.9999999999989981
 20
635.0
 30
0.0
 11
42.9999999999989981
 21
635.0
 31
0.0
  0
LINE
  8
1
 62
8
  6
CONTINUOUS
 10
45.9999999999989981
 20
637.0
 30
0.0
 11
42.9999999999989981
 21
637.0
 31
0.0
  0
LINE
  8
1
 62
8
  6
CONTINUOUS
 10
45.9999999999989981
 20
638.0
 30
0.0
 11
42.9999999999989981
 21
638.0
 31
0.0
  0
LINE
  8
1
 62
8
  6
CONTINUOUS
 10
45.9999999999989981
 20
640.0
 30
0.0
 11
42.9999999999989981
 21
640.0
 31
0.0
  0
LINE
  8
1
 62
8
  6
CONTINUOUS
 10
45.9999999999989981
 20
641.0
 30
0.0
 11
42.9999999999989981
 21
641.0
 31
0.0
  0
TEXT
  8
1
 62
8
  6
CONTINUOUS
 10
66.9999999999990052
 20
624.0007900350300361
 30
0.0
 40
12.0
  1
0
 50
0.0
 41
1.0
  7
STANDARD
 71
0
 72
0
 11
66.9999999999990052
 21
624.0007900350300361
 31
0.0
 73
1
  0
TEXT
  8
1
 62
8
  6
CONTINUOUS
 10
66.9999999999990052
 20
564.0007900350300361
 30
0.0
 40
12.0
  1
5\~ft.
 50
0.0
 41
1.0
  7
STANDARD
 71
0
 72
0
 11
66.9999999999990052
 21
564.0007900350300361
 31
0.0
 73
1
  0
TEXT
  8
1
 62
8
  6
CONTINUOUS
 10
66.9999999999990052
 20
504.0007900350299792
 30
0.0
 40
12.0
  1
10
 50
0.0
 41
1.0
  7
STANDARD
 71
0
 72
0
 11
66.9999999999990052
 21
504.0007900350299792
 31
0.0
 73
1
  0
TEXT
  8
1
 62
8
  6
CONTINUOUS
 10
66.9999999999990052
 20
444.0007900350299792
 30
0.0
 40
12.0
  1
15
 50
0.0
 41
1.0
  7
STANDARD
 71
0
 72
0
 11
66.9999999999990052
 21
444.0007900350299792
 31
0.0
 73
1
  0
TEXT
  8
1
 62
8
  6
CONTINUOUS
 10
66.9999999999979963
 20
384.0007900350299792
 30
0.0
 40
12.0
  1
20
 50
0.0
 41
1.0
  7
STANDARD
 71
0
 72
0
 11
66.9999999999979963
 21
384.0007900350299792
 31
0.0
 73
1
  0
TEXT
  8
1
 62
8
  6
CONTINUOUS
 10
66.9999999999979963
 20
324.0007900350299792
 30
0.0
 40
12.0
  1
25
 50
0.0
 41
1.0
  7
STANDARD
 71
0
 72
0
 11
66.9999999999979963
 21
324.0007900350299792
 31
0.0
 73
1
  0
TEXT
  8
1
 62
8
  6
CONTINUOUS
 10
66.9999999999979963
 20
264.0007900350299792
 30
0.0
 40
12.0
  1
30
 50
0.0
 41
1.0
  7
STANDARD
 71
0
 72
0
 11
66.9999999999979963
 21
264.0007900350299792
 31
0.0
 73
1
  0
TEXT
  8
1
 62
8
  6
CONTINUOUS
 10
66.9999999999979963
 20
204.0007900350300076
 30
0.0
 40
12.0
  1
35
 50
0.0
 41
1.0
  7
STANDARD
 71
0
 72
0
 11
66.9999999999979963
 21
204.0007900350300076
 31
0.0
 73
1
  0
TEXT
  8
1
 62
8
  6
CONTINUOUS
 10
66.9999999999979963
 20
144.0007900350300076
 30
0.0
 40
12.0
  1
40
 50
0.0
 41
1.0
  7
STANDARD
 71
0
 72
0
 11
66.9999999999979963
 21
144.0007900350300076
 31
0.0
 73
1
  0
TEXT
  8
1
 62
8
  6
CONTINUOUS
 10
66.9999999999979963
 20
84.0007900350260002
 30
0.0
 40
12.0
  1
45
 50
0.0
 41
1.0
  7
STANDARD
 71
0
 72
0
 11
66.9999999999979963
 21
84.0007900350260002
 31
0.0
 73
1
  0
TEXT
  8
1
 62
8
  6
CONTINUOUS
 10
66.9999999999979963
 20
24.0007900350260002
 30
0.0
 40
12.0
  1
50
 50
0.0
 41
1.0
  7
STANDARD
 71
0
 72
0
 11
66.9999999999979963
 21
24.0007900350260002
 31
0.0
 73
1
  0
ENDSEC
  0
EOF
